  0
SECTION
  2
HEADER
  9
$ACADVER
  1
AC1009
  9
$INSBASE
 10
0.0
 20
0.0
 30
0.0
  9
$EXTMIN
 10
281.396000
 20
29.897000
 30
-2147483.648000
  9
$EXTMAX
 10
291.896000
 20
44.747000
 30
0.000000
  9
$LIMMIN
 10
280.396000
 20
28.897000
  9
$LIMMAX
 10
292.896000
 20
43.747000
  9
$ORTHOMODE
 70
     0
  9
$REGENMODE
 70
     1
  9
$FILLMODE
 70
     1
  9
$QTEXTMODE
 70
     0
  9
$MIRRTEXT
 70
     1
  9
$DRAGMODE
 70
     2
  9
$LTSCALE
 40
1.0
  9
$OSMODE
 70
     0
  9
$ATTMODE
 70
     1
  9
$TEXTSIZE
 40
0.2
  9
$TRACEWID
 40
0.05
  9
$TEXTSTYLE
  7
STANDARD
  9
$CLAYER
  8
0
  9
$CELTYPE
  6
BYLAYER
  9
$CECOLOR
 62
   256
  9
$DIMSCALE
 40
1.0
  9
$DIMASZ
 40
0.18
  9
$DIMEXO
 40
0.0625
  9
$DIMDLI
 40
0.38
  9
$DIMRND
 40
0.0
  9
$DIMDLE
 40
0.0
  9
$DIMEXE
 40
0.18
  9
$DIMTP
 40
0.0
  9
$DIMTM
 40
0.0
  9
$DIMTXT
 40
0.18
  9
$DIMCEN
 40
0.09
  9
$DIMTSZ
 40
0.0
  9
$DIMTOL
 70
     0
  9
$DIMLIM
 70
     0
  9
$DIMTIH
 70
     1
  9
$DIMTOH
 70
     1
  9
$DIMSE1
 70
     0
  9
$DIMSE2
 70
     0
  9
$DIMTAD
 70
     0
  9
$DIMZIN
 70
     0
  9
$DIMBLK
  1

  9
$DIMASO
 70
     1
  9
$DIMSHO
 70
     1
  9
$DIMPOST
  1

  9
$DIMAPOST
  1

  9
$DIMALT
 70
     0
  9
$DIMALTD
 70
     2
  9
$DIMALTF
 40
25.4
  9
$DIMLFAC
 40
1.0
  9
$DIMTOFL
 70
     0
  9
$DIMTVP
 40
0.0
  9
$DIMTIX
 70
     0
  9
$DIMSOXD
 70
     0
  9
$DIMSAH
 70
     0
  9
$DIMBLK1
  1

  9
$DIMBLK2
  1

  9
$DIMSTYLE
  2
*UNNAMED
  9
$DIMCLRD
 70
     0
  9
$DIMCLRE
 70
     0
  9
$DIMCLRT
 70
     0
  9
$DIMTFAC
 40
1.0
  9
$DIMGAP
 40
0.09
  9
$LUNITS
 70
     2
  9
$LUPREC
 70
     4
  9
$AXISMODE
 70
     0
  9
$AXISUNIT
 10
0.0
 20
0.0
  9
$SKETCHINC
 40
0.1
  9
$FILLETRAD
 40
0.0
  9
$AUNITS
 70
     0
  9
$AUPREC
 70
     0
  9
$MENU
  1
acad
  9
$ELEVATION
 40
0.0
  9
$PELEVATION
 40
0.0
  9
$THICKNESS
 40
0.0
  9
$LIMCHECK
 70
     0
  9
$BLIPMODE
 70
     1
  9
$CHAMFERA
 40
0.0
  9
$CHAMFERB
 40
0.0
  9
$SKPOLY
 70
     0
  9
$TDCREATE
 40
2448315.373408102
  9
$TDUPDATE
 40
2448315.373408102
  9
$TDINDWG
 40
0.0000000000
  9
$TDUSRTIMER
 40
0.0000000000
  9
$USRTIMER
 70
     1
  9
$ANGBASE
 50
0.0
  9
$ANGDIR
 70
     0
  9
$PDMODE
 70
     0
  9
$PDSIZE
 40
0.0
  9
$PLINEWID
 40
0.0
  9
$COORDS
 70
     0
  9
$SPLFRAME
 70
     0
  9
$SPLINETYPE
 70
     6
  9
$SPLINESEGS
 70
     8
  9
$ATTDIA
 70
     0
  9
$ATTREQ
 70
     1
  9
$HANDLING
 70
     0
  9
$HANDSEED
  5
0
  9
$SURFTAB1
 70
     6
  9
$SURFTAB2
 70
     6
  9
$SURFTYPE
 70
     6
  9
$SURFU
 70
     6
  9
$SURFV
 70
     6
  9
$UCSNAME
  2

  9
$UCSORG
 10
0.0
 20
0.0
 30
0.0
  9
$UCSXDIR
 10
1.0
 20
0.0
 30
0.0
  9
$UCSYDIR
 10
0.0
 20
1.0
 30
0.0
  9
$PUCSNAME
  2

  9
$PUCSORG
 10
0.0
 20
0.0
 30
0.0
  9
$PUCSXDIR
 10
1.0
 20
0.0
 30
0.0
  9
$PUCSYDIR
 10
0.0
 20
1.0
 30
0.0
  9
$USERI1
 70
     0
  9
$USERI2
 70
     0
  9
$USERI3
 70
     0
  9
$USERI4
 70
     0
  9
$USERI5
 70
     0
  9
$USERR1
 40
0.0
  9
$USERR2
 40
0.0
  9
$USERR3
 40
0.0
  9
$USERR4
 40
0.0
  9
$USERR5
 40
0.0
  9
$WORLDVIEW
 70
     1
  9
$SHADEDGE
 70
     3
  9
$SHADEDIF
 70
    70
  9
$TILEMODE
 70
     1
  9
$MAXACTVP
 70
    16
  9
$PINSBASE
 10
0.0
 20
0.0
 30
0.0
  9
$PLIMCHECK
 70
     0
  9
$PEXTMIN
 10
1.000000E+20
 20
1.000000E+20
 30
1.000000E+20
  9
$PEXTMAX
 10
-1.000000E+20
 20
-1.000000E+20
 30
-1.000000E+20
  9
$PLIMMIN
 10
0.0
 20
0.0
  9
$PLIMMAX
 10
12.0
 20
9.0
  9
$UNITMODE
 70
     0
  9
$VISRETAIN
 70
     0
  0
ENDSEC
  0
SECTION
  2
TABLES
  0
TABLE
  2
LTYPE
 70
    1
  0
LTYPE
  2
CONTINUOUS
 70
    64
3
Solid line
 72
    65
 73
0
 40
0.000000
  0
ENDTAB
  0
TABLE
  2
LAYER
 70
    8
  0
LAYER
  2
0
 70
    64
 62
7
  6
CONTINUOUS
  0
LAYER
  2
1
 70
    64
 62
7
  6
CONTINUOUS
  0
LAYER
  2
7
 70
    64
 62
7
  6
CONTINUOUS
  0
LAYER
  2
8
 70
    64
 62
7
  6
CONTINUOUS
  0
LAYER
  2
9
 70
    64
 62
7
  6
CONTINUOUS
  0
LAYER
  2
22
 70
    64
 62
7
  6
CONTINUOUS
  0
LAYER
  2
25
 70
    64
 62
7
  6
CONTINUOUS
  0
LAYER
  2
0
 70
    64
 62
7
  6
CONTINUOUS
  0
ENDTAB
  0
TABLE
  2
STYLE
 70
    1
  0
STYLE
  2
ROMANC
70
     0
 40
0.0
 41
1.0
 50
0.0
 71
     0
 42
0.2
  3
ROMANC
  4

  0
ENDTAB
  0
ENDSEC
  0
SECTION
  2
BLOCKS
  0
ENDSEC
  0
SECTION
  2
ENTITIES
  0
TEXT
  8
0
  6
CONTINUOUS
 40
0.100000
 10
286.909000
 20
41.324000
  1
2
  7
ROMANC
  0
TEXT
  8
0
  6
CONTINUOUS
 40
0.300000
 10
283.926000
 20
41.768000
  1
ESCALA  1:50
  7
ROMANC
  0
POLYLINE
  8
0
  6
CONTINUOUS
 66
     1
 70
     1
  0
VERTEX
  8
0
  6
CONTINUOUS
 10
281.396000
 20
44.747000
  0
VERTEX
  8
0
  6
CONTINUOUS
 10
291.896000
 20
44.747000
  0
VERTEX
  8
0
  6
CONTINUOUS
 10
291.896000
 20
29.897000
  0
VERTEX
  8
0
  6
CONTINUOUS
 10
281.396000
 20
29.897000
  0
SEQEND
  8
0
  0
LINE
  8
1
  6
CONTINUOUS
 10
285.976000
 20
32.837000
 11
285.926000
 21
33.487000
  0
TEXT
  8
0
  6
CONTINUOUS
 40
0.300000
 10
283.922000
 20
40.529000
  1
P = 39 dm
  7
ROMANC
  0
TEXT
  8
0
  6
CONTINUOUS
 40
0.300000
 10
283.945000
 20
41.099000
  1
S = 105 dm
  7
ROMANC
  0
ARC
  8
1
  6
CONTINUOUS
 10
286.426000
 20
32.895333
 40
0.208333
 50
196.260206
 51
343.739797
  0
LINE
  8
1
  6
CONTINUOUS
 10
286.876000
 20
32.837000
 11
286.626000
 21
32.837000
  0
TEXT
  8
1
  6
CONTINUOUS
 40
0.075000
 10
286.304000
 20
32.498000
  1
0.40
  7
ROMANC
  0
LINE
  8
1
  6
CONTINUOUS
 10
286.076000
 20
32.535000
 11
286.226000
 21
32.535000
  0
LINE
  8
1
  6
CONTINUOUS
 10
286.776000
 20
32.535000
 11
286.626000
 21
32.535000
  0
LINE
  8
1
  6
CONTINUOUS
 10
286.264000
 20
32.554000
 11
286.188000
 21
32.516000
  0
LINE
  8
1
  6
CONTINUOUS
 10
286.588000
 20
32.516000
 11
286.664000
 21
32.554000
  0
LINE
  8
1
  6
CONTINUOUS
 10
286.226000
 20
32.799000
 11
286.226000
 21
32.497000
  0
LINE
  8
1
  6
CONTINUOUS
 10
286.626000
 20
32.799000
 11
286.626000
 21
32.497000
  0
LINE
  8
1
  6
CONTINUOUS
 10
286.226000
 20
32.837000
 11
285.976000
 21
32.837000
  0
TEXT
  8
1
  6
CONTINUOUS
 40
0.075000
 10
286.307000
 20
32.306000
  1
0.90
  7
ROMANC
  0
LINE
  8
1
  6
CONTINUOUS
 10
286.269000
 20
32.344000
 11
285.976000
 21
32.344000
  0
LINE
  8
1
  6
CONTINUOUS
 10
286.581000
 20
32.344000
 11
286.876000
 21
32.344000
  0
LINE
  8
1
  6
CONTINUOUS
 10
285.938000
 20
32.325000
 11
286.014000
 21
32.363000
  0
LINE
  8
1
  6
CONTINUOUS
 10
286.914000
 20
32.363000
 11
286.838000
 21
32.325000
  0
LINE
  8
1
  6
CONTINUOUS
 10
285.976000
 20
32.799000
 11
285.976000
 21
32.306000
  0
LINE
  8
1
  6
CONTINUOUS
 10
286.876000
 20
32.799000
 11
286.876000
 21
32.306000
  0
LINE
  8
1
  6
CONTINUOUS
 10
286.926000
 20
33.487000
 11
286.876000
 21
32.837000
  0
TEXT
  8
1
  6
CONTINUOUS
 40
0.075000
 10
287.058000
 20
32.997000
  1
0.15
 50
90.000000
  7
ROMANC
  0
LINE
  8
1
  6
CONTINUOUS
 10
287.021000
 20
32.537000
 11
287.021000
 21
32.687000
  0
LINE
  8
1
  6
CONTINUOUS
 10
287.021000
 20
32.959000
 11
287.021000
 21
32.837000
  0
LINE
  8
1
  6
CONTINUOUS
 10
287.002000
 20
32.724000
 11
287.040000
 21
32.650000
  0
LINE
  8
1
  6
CONTINUOUS
 10
287.040000
 20
32.800000
 11
287.002000
 21
32.874000
  0
LINE
  8
1
  6
CONTINUOUS
 10
286.464000
 20
32.687000
 11
287.059000
 21
32.687000
  0
LINE
  8
1
  6
CONTINUOUS
 10
286.914000
 20
32.837000
 11
287.059000
 21
32.837000
  0
TEXT
  8
1
  6
CONTINUOUS
 40
0.075000
 10
287.234000
 20
33.043000
  1
0.65
 50
90.000000
  7
ROMANC
  0
LINE
  8
1
  6
CONTINUOUS
 10
287.196000
 20
33.005000
 11
287.196000
 21
32.837000
  0
LINE
  8
1
  6
CONTINUOUS
 10
287.196000
 20
33.317000
 11
287.196000
 21
33.487000
  0
LINE
  8
1
  6
CONTINUOUS
 10
287.215000
 20
32.800000
 11
287.177000
 21
32.874000
  0
LINE
  8
1
  6
CONTINUOUS
 10
287.177000
 20
33.524000
 11
287.215000
 21
33.450000
  0
LINE
  8
1
  6
CONTINUOUS
 10
286.914000
 20
32.837000
 11
287.234000
 21
32.837000
  0
LINE
  8
1
  6
CONTINUOUS
 10
286.964000
 20
33.487000
 11
287.234000
 21
33.487000
  0
TEXT
  8
1
  6
CONTINUOUS
 40
0.075000
 10
287.398000
 20
33.227000
  1
1.30
 50
90.000000
  7
ROMANC
  0
LINE
  8
1
  6
CONTINUOUS
 10
287.361000
 20
33.189000
 11
287.361000
 21
32.687000
  0
LINE
  8
1
  6
CONTINUOUS
 10
287.361000
 20
33.484000
 11
287.361000
 21
33.987000
  0
LINE
  8
1
  6
CONTINUOUS
 10
287.380000
 20
32.650000
 11
287.342000
 21
32.724000
  0
LINE
  8
1
  6
CONTINUOUS
 10
287.342000
 20
34.024000
 11
287.380000
 21
33.950000
  0
LINE
  8
1
  6
CONTINUOUS
 10
286.464000
 20
32.687000
 11
287.399000
 21
32.687000
  0
LINE
  8
1
  6
CONTINUOUS
 10
286.464000
 20
33.987000
 11
287.399000
 21
33.987000
  0
ARC
  8
1
  6
CONTINUOUS
 10
286.426000
 20
33.487000
 40
0.500000
 50
0.000000
 51
180.000000
  0
TEXT
  8
1
  6
CONTINUOUS
 40
0.075000
 10
286.316000
 20
34.094000
  1
1.00
  7
ROMANC
  0
LINE
  8
1
  6
CONTINUOUS
 10
286.278000
 20
34.131000
 11
285.926000
 21
34.131000
  0
LINE
  8
1
  6
CONTINUOUS
 10
286.573000
 20
34.131000
 11
286.926000
 21
34.131000
  0
LINE
  8
1
  6
CONTINUOUS
 10
285.888000
 20
34.112000
 11
285.964000
 21
34.150000
  0
LINE
  8
1
  6
CONTINUOUS
 10
286.964000
 20
34.150000
 11
286.888000
 21
34.112000
  0
LINE
  8
1
  6
CONTINUOUS
 10
285.926000
 20
33.525000
 11
285.926000
 21
34.169000
  0
LINE
  8
1
  6
CONTINUOUS
 10
286.926000
 20
33.525000
 11
286.926000
 21
34.169000
  0
ARC
  8
1
  6
CONTINUOUS
 10
286.426000
 20
33.487000
 40
0.510000
 50
0.000000
 51
180.000000
  0
ARC
  8
1
  6
CONTINUOUS
 10
286.426000
 20
33.487000
 40
0.520000
 50
0.000000
 51
180.000000
  0
LINE
  8
1
  6
CONTINUOUS
 10
286.935000
 20
33.486000
 11
286.884000
 21
32.827000
  0
LINE
  8
1
  6
CONTINUOUS
 10
286.945000
 20
33.485000
 11
286.894000
 21
32.817000
  0
LINE
  8
1
  6
CONTINUOUS
 10
286.884000
 20
32.827000
 11
286.633000
 21
32.827000
  0
LINE
  8
1
  6
CONTINUOUS
 10
286.894000
 20
32.817000
 11
286.640000
 21
32.817000
  0
ARC
  8
1
  6
CONTINUOUS
 10
286.426000
 20
32.895333
 40
0.218333
 50
198.238736
 51
341.761264
  0
ARC
  8
1
  6
CONTINUOUS
 10
286.426000
 20
32.895333
 40
0.228333
 50
200.063764
 51
339.936236
  0
LINE
  8
1
  6
CONTINUOUS
 10
286.219000
 20
32.827000
 11
285.967000
 21
32.827000
  0
LINE
  8
1
  6
CONTINUOUS
 10
286.212000
 20
32.817000
 11
285.957000
 21
32.817000
  0
LINE
  8
1
  6
CONTINUOUS
 10
285.967000
 20
32.827000
 11
285.916000
 21
33.486000
  0
LINE
  8
1
  6
CONTINUOUS
 10
285.957000
 20
32.817000
 11
285.906000
 21
33.485000
  0
TEXT
  8
0
  6
CONTINUOUS
 40
0.300000
 10
283.926000
 20
42.381000
  1
TIPUS   NT105B
  7
ROMANC
  0
ENDSEC
  0
EOF
