  0
SECTION
  2
HEADER
  9
$ACADVER
  1
AC1015
  9
$ACADMAINTVER
 70
    13
  9
$DWGCODEPAGE
  3
ANSI_1252
  9
$INSBASE
 10
0.0
 20
0.0
 30
0.0
  9
$EXTMIN
 10
281.3950692441341
 20
29.89657355491301
 30
-98.29650011472404
  9
$EXTMAX
 10
291.8969308140735
 20
44.74748374051749
 30
65.54100007656962
  9
$LIMMIN
 10
280.396
 20
28.89699999999999
  9
$LIMMAX
 10
292.896
 20
43.74699999999999
  9
$ORTHOMODE
 70
     0
  9
$REGENMODE
 70
     1
  9
$FILLMODE
 70
     1
  9
$QTEXTMODE
 70
     0
  9
$MIRRTEXT
 70
     1
  9
$LTSCALE
 40
1.0
  9
$ATTMODE
 70
     1
  9
$TEXTSIZE
 40
0.2
  9
$TRACEWID
 40
0.05
  9
$TEXTSTYLE
  7
Standard
  9
$CLAYER
  8
0
  9
$CELTYPE
  6
ByLayer
  9
$CECOLOR
 62
   256
  9
$CELTSCALE
 40
1.0
  9
$DISPSILH
 70
     0
  9
$DIMSCALE
 40
1.0
  9
$DIMASZ
 40
0.18
  9
$DIMEXO
 40
0.0625
  9
$DIMDLI
 40
0.38
  9
$DIMRND
 40
0.0
  9
$DIMDLE
 40
0.0
  9
$DIMEXE
 40
0.18
  9
$DIMTP
 40
0.0
  9
$DIMTM
 40
0.0
  9
$DIMTXT
 40
0.18
  9
$DIMCEN
 40
0.09
  9
$DIMTSZ
 40
0.0
  9
$DIMTOL
 70
     0
  9
$DIMLIM
 70
     0
  9
$DIMTIH
 70
     1
  9
$DIMTOH
 70
     1
  9
$DIMSE1
 70
     0
  9
$DIMSE2
 70
     0
  9
$DIMTAD
 70
     0
  9
$DIMZIN
 70
     0
  9
$DIMBLK
  1

  9
$DIMASO
 70
     1
  9
$DIMSHO
 70
     1
  9
$DIMPOST
  1

  9
$DIMAPOST
  1

  9
$DIMALT
 70
     0
  9
$DIMALTD
 70
     2
  9
$DIMALTF
 40
25.4
  9
$DIMLFAC
 40
1.0
  9
$DIMTOFL
 70
     0
  9
$DIMTVP
 40
0.0
  9
$DIMTIX
 70
     0
  9
$DIMSOXD
 70
     0
  9
$DIMSAH
 70
     0
  9
$DIMBLK1
  1

  9
$DIMBLK2
  1

  9
$DIMSTYLE
  2
Standard
  9
$DIMCLRD
 70
     0
  9
$DIMCLRE
 70
     0
  9
$DIMCLRT
 70
     0
  9
$DIMTFAC
 40
1.0
  9
$DIMGAP
 40
0.09
  9
$DIMJUST
 70
     0
  9
$DIMSD1
 70
     0
  9
$DIMSD2
 70
     0
  9
$DIMTOLJ
 70
     1
  9
$DIMTZIN
 70
     0
  9
$DIMALTZ
 70
     0
  9
$DIMALTTZ
 70
     0
  9
$DIMUPT
 70
     0
  9
$DIMDEC
 70
     4
  9
$DIMTDEC
 70
     4
  9
$DIMALTU
 70
     2
  9
$DIMALTTD
 70
     2
  9
$DIMTXSTY
  7
Standard
  9
$DIMAUNIT
 70
     0
  9
$DIMADEC
 70
     0
  9
$DIMALTRND
 40
0.0
  9
$DIMAZIN
 70
     0
  9
$DIMDSEP
 70
    46
  9
$DIMATFIT
 70
     3
  9
$DIMFRAC
 70
     0
  9
$DIMLDRBLK
  1

  9
$DIMLUNIT
 70
     2
  9
$DIMLWD
 70
    -2
  9
$DIMLWE
 70
    -2
  9
$DIMTMOVE
 70
     0
  9
$LUNITS
 70
     2
  9
$LUPREC
 70
     4
  9
$SKETCHINC
 40
0.1
  9
$FILLETRAD
 40
0.0
  9
$AUNITS
 70
     0
  9
$AUPREC
 70
     0
  9
$MENU
  1
acad
  9
$ELEVATION
 40
0.0
  9
$PELEVATION
 40
0.0
  9
$THICKNESS
 40
0.0
  9
$LIMCHECK
 70
     0
  9
$CHAMFERA
 40
0.0
  9
$CHAMFERB
 40
0.0
  9
$CHAMFERC
 40
0.0
  9
$CHAMFERD
 40
0.0
  9
$SKPOLY
 70
     0
  9
$TDCREATE
 40
2448315.373408102
  9
$TDUCREATE
 40
2448315.331741435
  9
$TDUPDATE
 40
2453453.577843923
  9
$TDUUPDATE
 40
2453453.536177257
  9
$TDINDWG
 40
0.0030112616
  9
$TDUSRTIMER
 40
0.0030089120
  9
$USRTIMER
 70
     1
  9
$ANGBASE
 50
0.0
  9
$ANGDIR
 70
     0
  9
$PDMODE
 70
     0
  9
$PDSIZE
 40
0.0
  9
$PLINEWID
 40
0.0
  9
$SPLFRAME
 70
     0
  9
$SPLINETYPE
 70
     6
  9
$SPLINESEGS
 70
     8
  9
$HANDSEED
  5
D1
  9
$SURFTAB1
 70
     6
  9
$SURFTAB2
 70
     6
  9
$SURFTYPE
 70
     6
  9
$SURFU
 70
     6
  9
$SURFV
 70
     6
  9
$UCSBASE
  2

  9
$UCSNAME
  2

  9
$UCSORG
 10
0.0
 20
0.0
 30
0.0
  9
$UCSXDIR
 10
1.0
 20
0.0
 30
0.0
  9
$UCSYDIR
 10
0.0
 20
1.0
 30
0.0
  9
$UCSORTHOREF
  2

  9
$UCSORTHOVIEW
 70
     0
  9
$UCSORGTOP
 10
0.0
 20
0.0
 30
0.0
  9
$UCSORGBOTTOM
 10
0.0
 20
0.0
 30
0.0
  9
$UCSORGLEFT
 10
0.0
 20
0.0
 30
0.0
  9
$UCSORGRIGHT
 10
0.0
 20
0.0
 30
0.0
  9
$UCSORGFRONT
 10
0.0
 20
0.0
 30
0.0
  9
$UCSORGBACK
 10
0.0
 20
0.0
 30
0.0
  9
$PUCSBASE
  2

  9
$PUCSNAME
  2

  9
$PUCSORG
 10
0.0
 20
0.0
 30
0.0
  9
$PUCSXDIR
 10
1.0
 20
0.0
 30
0.0
  9
$PUCSYDIR
 10
0.0
 20
1.0
 30
0.0
  9
$PUCSORTHOREF
  2

  9
$PUCSORTHOVIEW
 70
     0
  9
$PUCSORGTOP
 10
0.0
 20
0.0
 30
0.0
  9
$PUCSORGBOTTOM
 10
0.0
 20
0.0
 30
0.0
  9
$PUCSORGLEFT
 10
0.0
 20
0.0
 30
0.0
  9
$PUCSORGRIGHT
 10
0.0
 20
0.0
 30
0.0
  9
$PUCSORGFRONT
 10
0.0
 20
0.0
 30
0.0
  9
$PUCSORGBACK
 10
0.0
 20
0.0
 30
0.0
  9
$USERI1
 70
     0
  9
$USERI2
 70
     0
  9
$USERI3
 70
     0
  9
$USERI4
 70
     0
  9
$USERI5
 70
     0
  9
$USERR1
 40
0.0
  9
$USERR2
 40
0.0
  9
$USERR3
 40
0.0
  9
$USERR4
 40
0.0
  9
$USERR5
 40
0.0
  9
$WORLDVIEW
 70
     1
  9
$SHADEDGE
 70
     3
  9
$SHADEDIF
 70
    70
  9
$TILEMODE
 70
     1
  9
$MAXACTVP
 70
    16
  9
$PINSBASE
 10
0.0
 20
0.0
 30
0.0
  9
$PLIMCHECK
 70
     0
  9
$PEXTMIN
 10
1.000000000000000E+20
 20
1.000000000000000E+20
 30
1.000000000000000E+20
  9
$PEXTMAX
 10
-1.000000000000000E+20
 20
-1.000000000000000E+20
 30
-1.000000000000000E+20
  9
$PLIMMIN
 10
0.0
 20
0.0
  9
$PLIMMAX
 10
12.0
 20
9.0
  9
$UNITMODE
 70
     0
  9
$VISRETAIN
 70
     0
  9
$PLINEGEN
 70
     0
  9
$PSLTSCALE
 70
     1
  9
$TREEDEPTH
 70
  3020
  9
$CMLSTYLE
  2
Standard
  9
$CMLJUST
 70
     0
  9
$CMLSCALE
 40
1.0
  9
$PROXYGRAPHICS
 70
     1
  9
$MEASUREMENT
 70
     0
  9
$CELWEIGHT
370
    -1
  9
$ENDCAPS
280
     0
  9
$JOINSTYLE
280
     0
  9
$LWDISPLAY
290
     0
  9
$INSUNITS
 70
     0
  9
$HYPERLINKBASE
  1

  9
$STYLESHEET
  1

  9
$XEDIT
290
     1
  9
$CEPSNTYPE
380
     0
  9
$PSTYLEMODE
290
     1
  9
$FINGERPRINTGUID
  2
{9BB5B127-B2C2-4A94-A2DC-DF8FE8F72808}
  9
$VERSIONGUID
  2
{D3D53A15-6C78-47E4-9E18-99A41E42502A}
  9
$EXTNAMES
290
     1
  9
$PSVPSCALE
 40
0.0
  9
$OLESTARTUP
290
     0
  0
ENDSEC
  0
SECTION
  2
CLASSES
  0
CLASS
  1
ACDBDICTIONARYWDFLT
  2
AcDbDictionaryWithDefault
  3
AutoCAD 2000
 90
        0
280
     0
281
     0
  0
CLASS
  1
ACDBPLACEHOLDER
  2
AcDbPlaceHolder
  3
AutoCAD 2000
 90
        0
280
     0
281
     0
  0
CLASS
  1
LAYOUT
  2
AcDbLayout
  3
AutoCAD 2000
 90
        0
280
     0
281
     0
  0
CLASS
  1
DICTIONARYVAR
  2
AcDbDictionaryVar
  3
AutoCAD 2000
 90
        0
280
     0
281
     0
  0
ENDSEC
  0
SECTION
  2
TABLES
  0
TABLE
  2
VPORT
  5
8
330
0
100
AcDbSymbolTable
 70
     3
  0
VPORT
  5
D0
330
8
100
AcDbSymbolTableRecord
100
AcDbViewportTableRecord
  2
*Active
 70
     0
 10
0.0
 20
0.0
 11
1.0
 21
1.0
 12
287.421758825179
 22
36.92467585631746
 13
0.0
 23
0.0
 14
1.0
 24
1.0
 15
0.0
 25
0.0
 16
0.0
 26
0.0
 36
1.0
 17
0.0
 27
0.0
 37
0.0
 40
2.022073199996327
 41
1.647462277091906
 42
50.0
 43
0.0
 44
0.0
 50
0.0
 51
0.0
 71
     0
 72
   100
 73
     1
 74
     1
 75
     0
 76
     0
 77
     0
 78
     0
281
     0
 65
     1
110
0.0
120
0.0
130
0.0
111
1.0
121
0.0
131
0.0
112
0.0
122
1.0
132
0.0
 79
     0
146
0.0
  0
ENDTAB
  0
TABLE
  2
LTYPE
  5
5
330
0
100
AcDbSymbolTable
 70
     1
  0
LTYPE
  5
13
330
5
100
AcDbSymbolTableRecord
100
AcDbLinetypeTableRecord
  2
ByBlock
 70
     0
  3

 72
    65
 73
     0
 40
0.0
  0
LTYPE
  5
14
330
5
100
AcDbSymbolTableRecord
100
AcDbLinetypeTableRecord
  2
ByLayer
 70
     0
  3

 72
    65
 73
     0
 40
0.0
  0
LTYPE
  5
15
330
5
100
AcDbSymbolTableRecord
100
AcDbLinetypeTableRecord
  2
CONTINUOUS
 70
     0
  3
Solid line
 72
    65
 73
     0
 40
0.0
  0
ENDTAB
  0
TABLE
  2
LAYER
  5
2
330
0
100
AcDbSymbolTable
 70
     7
  0
LAYER
  5
10
330
2
100
AcDbSymbolTableRecord
100
AcDbLayerTableRecord
  2
0
 70
     0
 62
     7
  6
CONTINUOUS
370
    -3
390
F
  0
LAYER
  5
22
330
2
100
AcDbSymbolTableRecord
100
AcDbLayerTableRecord
  2
1
 70
     0
 62
     7
  6
CONTINUOUS
370
    -3
390
F
  0
LAYER
  5
23
330
2
100
AcDbSymbolTableRecord
100
AcDbLayerTableRecord
  2
7
 70
     0
 62
     7
  6
CONTINUOUS
370
    -3
390
F
  0
LAYER
  5
24
330
2
100
AcDbSymbolTableRecord
100
AcDbLayerTableRecord
  2
8
 70
     0
 62
     7
  6
CONTINUOUS
370
    -3
390
F
  0
LAYER
  5
25
330
2
100
AcDbSymbolTableRecord
100
AcDbLayerTableRecord
  2
9
 70
     0
 62
     7
  6
CONTINUOUS
370
    -3
390
F
  0
LAYER
  5
26
330
2
100
AcDbSymbolTableRecord
100
AcDbLayerTableRecord
  2
22
 70
     0
 62
     7
  6
CONTINUOUS
370
    -3
390
F
  0
LAYER
  5
27
330
2
100
AcDbSymbolTableRecord
100
AcDbLayerTableRecord
  2
25
 70
     0
 62
     7
  6
CONTINUOUS
370
    -3
390
F
  0
ENDTAB
  0
TABLE
  2
STYLE
  5
3
330
0
100
AcDbSymbolTable
 70
     2
  0
STYLE
  5
11
330
3
100
AcDbSymbolTableRecord
100
AcDbTextStyleTableRecord
  2
Standard
 70
     0
 40
0.0
 41
1.0
 50
0.0
 71
     0
 42
0.2
  3
txt
  4

  0
STYLE
  5
28
330
3
100
AcDbSymbolTableRecord
100
AcDbTextStyleTableRecord
  2
ROMANC
 70
     0
 40
0.0
 41
1.0
 50
0.0
 71
     0
 42
0.2
  3
ROMANC
  4

  0
ENDTAB
  0
TABLE
  2
VIEW
  5
6
330
0
100
AcDbSymbolTable
 70
     0
  0
ENDTAB
  0
TABLE
  2
UCS
  5
7
330
0
100
AcDbSymbolTable
 70
     0
  0
ENDTAB
  0
TABLE
  2
APPID
  5
9
330
0
100
AcDbSymbolTable
 70
     1
  0
APPID
  5
12
330
9
100
AcDbSymbolTableRecord
100
AcDbRegAppTableRecord
  2
ACAD
 70
     0
  0
ENDTAB
  0
TABLE
  2
DIMSTYLE
  5
A
330
0
100
AcDbSymbolTable
 70
     1
100
AcDbDimStyleTable
 71
     0
  0
DIMSTYLE
105
C1
330
A
100
AcDbSymbolTableRecord
100
AcDbDimStyleTableRecord
  2
Standard
 70
     0
340
11
  0
ENDTAB
  0
TABLE
  2
BLOCK_RECORD
  5
1
330
0
100
AcDbSymbolTable
 70
     1
  0
BLOCK_RECORD
  5
1E
330
1
100
AcDbSymbolTableRecord
100
AcDbBlockTableRecord
  2
*Model_Space
340
21
  0
BLOCK_RECORD
  5
1A
330
1
100
AcDbSymbolTableRecord
100
AcDbBlockTableRecord
  2
*Paper_Space
340
1D
  0
ENDTAB
  0
ENDSEC
  0
SECTION
  2
BLOCKS
  0
BLOCK
  5
1F
330
1E
100
AcDbEntity
  8
0
100
AcDbBlockBegin
  2
*Model_Space
 70
     0
 10
0.0
 20
0.0
 30
0.0
  3
*Model_Space
  1

  0
ENDBLK
  5
20
330
1E
100
AcDbEntity
  8
0
100
AcDbBlockEnd
  0
BLOCK
  5
1B
330
1A
100
AcDbEntity
 67
     1
  8
0
100
AcDbBlockBegin
  2
*Paper_Space
 70
     0
 10
0.0
 20
0.0
 30
0.0
  3
*Paper_Space
  1

  0
ENDBLK
  5
1C
330
1A
100
AcDbEntity
 67
     1
  8
0
100
AcDbBlockEnd
  0
ENDSEC
  0
SECTION
  2
ENTITIES
  0
TEXT
  5
2C
330
1E
100
AcDbEntity
  8
0
  6
Continuous
100
AcDbText
 10
286.935
 20
41.326
 30
0.0
 40
0.1
  1
2
  7
ROMANC
100
AcDbText
  0
TEXT
  5
2D
330
1E
100
AcDbEntity
  8
0
  6
Continuous
100
AcDbText
 10
283.9259999999999
 20
41.768
 30
0.0
 40
0.3
  1
ESCALA  1:50
  7
ROMANC
100
AcDbText
  0
LWPOLYLINE
  5
2E
330
1E
100
AcDbEntity
  8
0
  6
Continuous
100
AcDbPolyline
 90
        4
 70
     1
 43
0.0
 10
281.396
 20
44.747
 10
291.896
 20
44.747
 10
291.896
 20
29.897
 10
281.396
 20
29.897
  0
TEXT
  5
34
330
1E
100
AcDbEntity
  8
0
  6
Continuous
100
AcDbText
 10
283.9449999999999
 20
41.09899999999999
 30
0.0
 40
0.3
  1
S = 104 dm
  7
ROMANC
100
AcDbText
  0
TEXT
  5
35
330
1E
100
AcDbEntity
  8
0
  6
Continuous
100
AcDbText
 10
283.922
 20
40.529
 30
0.0
 40
0.3
  1
P = 41 dm
  7
ROMANC
100
AcDbText
  0
TEXT
  5
36
330
1E
100
AcDbEntity
  8
0
  6
Continuous
100
AcDbText
 10
283.9259999999999
 20
42.381
 30
0.0
 40
0.3
  1
TIPUS   NT104C
  7
ROMANC
100
AcDbText
  0
LINE
  5
37
330
1E
100
AcDbEntity
  8
1
  6
Continuous
100
AcDbLine
 10
285.937
 20
36.913
 30
0.0
 11
285.987
 21
36.11299999999999
 31
0.0
  0
LINE
  5
38
330
1E
100
AcDbEntity
  8
1
  6
Continuous
100
AcDbLine
 10
285.927
 20
36.912
 30
0.0
 11
285.978
 21
36.103
 31
0.0
  0
LINE
  5
39
330
1E
100
AcDbEntity
  8
1
  6
Continuous
100
AcDbLine
 10
285.9169999999999
 20
36.912
 30
0.0
 11
285.968
 21
36.093
 31
0.0
  0
LWPOLYLINE
  5
3A
330
1E
100
AcDbEntity
  8
1
  6
Continuous
100
AcDbPolyline
 90
       25
 70
     0
 43
0.0
 10
286.7474389999999
 20
36.912987
 42
0.021953
 10
286.743966
 20
36.992241
 42
0.022579
 10
286.733469
 20
37.070867
 42
0.022997
 10
286.716512
 20
37.145418
 42
0.02498
 10
286.69251
 20
37.217987
 42
0.025886
 10
286.6634149999999
 20
37.28297299999999
 42
0.029489
 10
286.6273529999999
 20
37.344322
 42
0.030991
 10
286.5881299999999
 20
37.395665
 42
0.036294
 10
286.542439
 20
37.441263
 42
0.038337
 10
286.495471
 20
37.47581599999999
 42
0.044158
 10
286.4435549999999
 20
37.502202
 42
0.045946
 10
286.3914579999999
 20
37.5176
 42
0.048751
 10
286.337439
 20
37.522987
 42
0.048751
 10
286.2834209999999
 20
37.5176
 42
0.045946
 10
286.231324
 20
37.502202
 42
0.044158
 10
286.179408
 20
37.47581599999999
 42
0.038337
 10
286.132439
 20
37.441263
 42
0.036294
 10
286.086749
 20
37.395665
 42
0.030991
 10
286.047526
 20
37.344322
 42
0.029489
 10
286.0114639999999
 20
37.28297299999999
 42
0.025886
 10
285.982369
 20
37.217987
 42
0.02498
 10
285.958367
 20
37.145418
 42
0.022997
 10
285.94141
 20
37.070867
 42
0.022579
 10
285.9309129999999
 20
36.992241
 42
0.021953
 10
285.9274389999999
 20
36.912987
  0
LWPOLYLINE
  5
55
330
1E
100
AcDbEntity
  8
1
  6
Continuous
100
AcDbPolyline
 90
       25
 70
     0
 43
0.0
 10
286.757439
 20
36.912987
 42
0.022126
 10
286.7538799999999
 20
36.993545
 42
0.022749
 10
286.7431279999999
 20
37.07345499999999
 42
0.023164
 10
286.7257529999999
 20
37.149242
 42
0.025132
 10
286.7011699999999
 20
37.22298699999999
 42
0.026031
 10
286.671354
 20
37.28906
 42
0.02959
 10
286.634424
 20
37.351393
 42
0.031071
 10
286.594221
 20
37.403603
 42
0.036273
 10
286.547439
 20
37.44992299999999
 42
0.038269
 10
286.499297
 20
37.48505999999999
 42
0.04393
 10
286.446143
 20
37.51186099999999
 42
0.045659
 10
286.392762
 20
37.527515
 42
0.048368
 10
286.337439
 20
37.532987
 42
0.048368
 10
286.2821169999999
 20
37.527515
 42
0.045659
 10
286.228735
 20
37.51186099999999
 42
0.04393
 10
286.1755819999999
 20
37.48505999999999
 42
0.038269
 10
286.127439
 20
37.44992299999999
 42
0.036273
 10
286.0806569999999
 20
37.403603
 42
0.031071
 10
286.040455
 20
37.351393
 42
0.02959
 10
286.003525
 20
37.28906
 42
0.026031
 10
285.9737089999999
 20
37.22298699999999
 42
0.025132
 10
285.949126
 20
37.149242
 42
0.023164
 10
285.9317509999999
 20
37.07345499999999
 42
0.022749
 10
285.920998
 20
36.993545
 42
0.022126
 10
285.917439
 20
36.912987
  0
LINE
  5
70
330
1E
100
AcDbEntity
  8
1
  6
Continuous
100
AcDbLine
 10
286.696
 20
36.103
 30
0.0
 11
286.747
 21
36.912
 31
0.0
  0
LINE
  5
71
330
1E
100
AcDbEntity
  8
1
  6
Continuous
100
AcDbLine
 10
286.706
 20
36.093
 30
0.0
 11
286.757
 21
36.912
 31
0.0
  0
LINE
  5
72
330
1E
100
AcDbEntity
  8
1
  6
Continuous
100
AcDbLine
 10
286.547
 20
36.103
 30
0.0
 11
286.696
 21
36.103
 31
0.0
  0
LINE
  5
73
330
1E
100
AcDbEntity
  8
1
  6
Continuous
100
AcDbLine
 10
286.557
 20
36.093
 30
0.0
 11
286.706
 21
36.093
 31
0.0
  0
LINE
  5
74
330
1E
100
AcDbEntity
  8
1
  6
Continuous
100
AcDbLine
 10
285.978
 20
36.103
 30
0.0
 11
286.1279999999999
 21
36.103
 31
0.0
  0
LINE
  5
75
330
1E
100
AcDbEntity
  8
1
  6
Continuous
100
AcDbLine
 10
285.968
 20
36.093
 30
0.0
 11
286.118
 21
36.093
 31
0.0
  0
ARC
  5
76
330
1E
100
AcDbEntity
  8
1
  6
Continuous
100
AcDbCircle
 10
286.337439
 20
36.11298699999999
 30
0.0
 40
0.21
100
AcDbArc
 50
182.725856
 51
357.2741439999999
  0
ARC
  5
77
330
1E
100
AcDbEntity
  8
1
  6
Continuous
100
AcDbCircle
 10
286.337439
 20
36.11298699999999
 30
0.0
 40
0.22
100
AcDbArc
 50
185.212511
 51
354.787489
  0
LINE
  5
78
330
1E
100
AcDbEntity
  8
1
  6
Continuous
100
AcDbLine
 10
285.987
 20
36.11299999999999
 30
0.0
 11
286.1369999999999
 21
36.11299999999999
 31
0.0
  0
LINE
  5
79
330
1E
100
AcDbEntity
  8
1
  6
Continuous
100
AcDbLine
 10
286.537
 20
36.11299999999999
 30
0.0
 11
286.687
 21
36.11299999999999
 31
0.0
  0
TEXT
  5
7A
330
1E
100
AcDbEntity
  8
1
  6
Continuous
100
AcDbText
 10
285.677
 20
35.70199999999999
 30
0.0
 40
0.075
  1
0.40
  7
ROMANC
100
AcDbText
  0
LINE
  5
7B
330
1E
100
AcDbEntity
  8
1
  6
Continuous
100
AcDbLine
 10
286.064
 20
35.739
 30
0.0
 11
286.1369999999999
 21
35.739
 31
0.0
  0
LINE
  5
7C
330
1E
100
AcDbEntity
  8
1
  6
Continuous
100
AcDbLine
 10
286.687
 20
35.739
 30
0.0
 11
286.537
 21
35.739
 31
0.0
  0
LINE
  5
7D
330
1E
100
AcDbEntity
  8
1
  6
Continuous
100
AcDbLine
 10
286.1739999999999
 20
35.758
 30
0.0
 11
286.1
 21
35.72
 31
0.0
  0
LINE
  5
7E
330
1E
100
AcDbEntity
  8
1
  6
Continuous
100
AcDbLine
 10
286.5
 20
35.72
 30
0.0
 11
286.574
 21
35.758
 31
0.0
  0
LINE
  5
7F
330
1E
100
AcDbEntity
  8
1
  6
Continuous
100
AcDbLine
 10
286.1369999999999
 20
36.075
 30
0.0
 11
286.1369999999999
 21
35.701
 31
0.0
  0
LINE
  5
80
330
1E
100
AcDbEntity
  8
1
  6
Continuous
100
AcDbLine
 10
286.537
 20
36.075
 30
0.0
 11
286.537
 21
35.701
 31
0.0
  0
TEXT
  5
81
330
1E
100
AcDbEntity
  8
1
  6
Continuous
100
AcDbText
 10
286.2
 20
35.46
 30
0.0
 40
0.075
  1
0.70
  7
ROMANC
100
AcDbText
  0
LINE
  5
82
330
1E
100
AcDbEntity
  8
1
  6
Continuous
100
AcDbLine
 10
286.1619999999999
 20
35.49799999999999
 30
0.0
 11
285.987
 21
35.49799999999999
 31
0.0
  0
LINE
  5
83
330
1E
100
AcDbEntity
  8
1
  6
Continuous
100
AcDbLine
 10
286.511
 20
35.49799999999999
 30
0.0
 11
286.687
 21
35.49799999999999
 31
0.0
  0
LINE
  5
84
330
1E
100
AcDbEntity
  8
1
  6
Continuous
100
AcDbLine
 10
285.95
 20
35.479
 30
0.0
 11
286.024
 21
35.517
 31
0.0
  0
LINE
  5
85
330
1E
100
AcDbEntity
  8
1
  6
Continuous
100
AcDbLine
 10
286.7239999999999
 20
35.517
 30
0.0
 11
286.6499999999999
 21
35.479
 31
0.0
  0
LINE
  5
86
330
1E
100
AcDbEntity
  8
1
  6
Continuous
100
AcDbLine
 10
285.987
 20
36.075
 30
0.0
 11
285.987
 21
35.46
 31
0.0
  0
LINE
  5
87
330
1E
100
AcDbEntity
  8
1
  6
Continuous
100
AcDbLine
 10
286.687
 20
36.075
 30
0.0
 11
286.687
 21
35.46
 31
0.0
  0
ARC
  5
88
330
1E
100
AcDbEntity
  8
1
  6
Continuous
100
AcDbCircle
 10
286.337439
 20
36.11298699999999
 30
0.0
 40
0.2
100
AcDbArc
 50
180.0
 51
0.0
  0
TEXT
  5
89
330
1E
100
AcDbEntity
  8
1
  6
Continuous
100
AcDbText
 10
287.0299999999999
 20
36.325
 30
0.0
 40
0.075
  1
0.20
 50
90.0
  7
ROMANC
100
AcDbText
  0
LINE
  5
8A
330
1E
100
AcDbEntity
  8
1
  6
Continuous
100
AcDbLine
 10
286.992
 20
36.211
 30
0.0
 11
286.992
 21
36.11299999999999
 31
0.0
  0
LINE
  5
8B
330
1E
100
AcDbEntity
  8
1
  6
Continuous
100
AcDbLine
 10
286.992
 20
35.76299999999999
 30
0.0
 11
286.992
 21
35.91299999999999
 31
0.0
  0
LINE
  5
8C
330
1E
100
AcDbEntity
  8
1
  6
Continuous
100
AcDbLine
 10
287.011
 20
36.076
 30
0.0
 11
286.973
 21
36.15
 31
0.0
  0
LINE
  5
8D
330
1E
100
AcDbEntity
  8
1
  6
Continuous
100
AcDbLine
 10
286.973
 20
35.95
 30
0.0
 11
287.011
 21
35.876
 31
0.0
  0
LINE
  5
8E
330
1E
100
AcDbEntity
  8
1
  6
Continuous
100
AcDbLine
 10
286.725
 20
36.11299999999999
 30
0.0
 11
287.0299999999999
 21
36.11299999999999
 31
0.0
  0
LINE
  5
8F
330
1E
100
AcDbEntity
  8
1
  6
Continuous
100
AcDbLine
 10
286.3749999999999
 20
35.91299999999999
 30
0.0
 11
287.0299999999999
 21
35.91299999999999
 31
0.0
  0
LINE
  5
90
330
1E
100
AcDbEntity
  8
1
  6
Continuous
100
AcDbLine
 10
286.687
 20
36.11299999999999
 30
0.0
 11
286.737
 21
36.913
 31
0.0
  0
TEXT
  5
91
330
1E
100
AcDbEntity
  8
1
  6
Continuous
100
AcDbText
 10
287.4831002682607
 20
36.39046771922136
 30
0.0
 40
0.075
  1
1.00
 50
90.0
  7
ROMANC
100
AcDbText
  0
LINE
  5
94
330
1E
100
AcDbEntity
  8
1
  6
Continuous
100
AcDbLine
 10
287.433
 20
36.95
 30
0.0
 11
287.4709999999999
 21
36.87599999999999
 31
0.0
  0
LINE
  5
96
330
1E
100
AcDbEntity
  8
1
  6
Continuous
100
AcDbLine
 10
286.775
 20
36.913
 30
0.0
 11
287.49
 21
36.913
 31
0.0
  0
LINE
  5
97
330
1E
100
AcDbEntity
  8
1
  6
Continuous
100
AcDbLine
 10
287.0299999999999
 20
36.11299999999999
 30
0.0
 11
287.464658689032
 21
36.1139914405835
 31
0.0
  0
LWPOLYLINE
  5
98
330
1E
100
AcDbEntity
  8
1
  6
Continuous
100
AcDbPolyline
 90
       25
 70
     0
 43
0.0
 10
286.737439
 20
36.912987
 42
0.021774
 10
286.7340509999999
 20
36.99093599999999
 42
0.022404
 10
286.72381
 20
37.068278
 42
0.022823
 10
286.707271
 20
37.141593
 42
0.024822
 10
286.68385
 20
37.212987
 42
0.025736
 10
286.655477
 20
37.276885
 42
0.029382
 10
286.6202819999999
 20
37.337251
 42
0.030906
 10
286.582038
 20
37.387728
 42
0.036313
 10
286.5374389999999
 20
37.432602
 42
0.038405
 10
286.491644
 20
37.466572
 42
0.044394
 10
286.440967
 20
37.492543
 42
0.046245
 10
286.3901549999999
 20
37.507684
 42
0.049152
 10
286.337439
 20
37.512987
 42
0.049152
 10
286.284724
 20
37.507684
 42
0.046245
 10
286.233912
 20
37.492543
 42
0.044394
 10
286.183235
 20
37.466572
 42
0.038405
 10
286.137439
 20
37.432602
 42
0.036313
 10
286.0928409999999
 20
37.387728
 42
0.030906
 10
286.054597
 20
37.337251
 42
0.029382
 10
286.019402
 20
37.276885
 42
0.025736
 10
285.991029
 20
37.212987
 42
0.024822
 10
285.9676079999999
 20
37.141593
 42
0.022823
 10
285.951069
 20
37.068278
 42
0.022404
 10
285.9408279999999
 20
36.99093599999999
 42
0.021774
 10
285.937439
 20
36.912987
  0
TEXT
  5
B3
330
1E
100
AcDbEntity
  8
1
  6
Continuous
100
AcDbText
 10
285.504
 20
36.576
 30
0.0
 40
0.075
  1
1.60
 50
90.0
  7
ROMANC
100
AcDbText
  0
LINE
  5
B4
330
1E
100
AcDbEntity
  8
1
  6
Continuous
100
AcDbLine
 10
285.4659999999999
 20
36.53799999999999
 30
0.0
 11
285.4659999999999
 21
35.91299999999999
 31
0.0
  0
LINE
  5
B5
330
1E
100
AcDbEntity
  8
1
  6
Continuous
100
AcDbLine
 10
285.4659999999999
 20
36.887
 30
0.0
 11
285.4659999999999
 21
37.513
 31
0.0
  0
LINE
  5
B6
330
1E
100
AcDbEntity
  8
1
  6
Continuous
100
AcDbLine
 10
285.485
 20
35.876
 30
0.0
 11
285.447
 21
35.95
 31
0.0
  0
LINE
  5
B7
330
1E
100
AcDbEntity
  8
1
  6
Continuous
100
AcDbLine
 10
285.447
 20
37.54999999999999
 30
0.0
 11
285.485
 21
37.476
 31
0.0
  0
LINE
  5
B8
330
1E
100
AcDbEntity
  8
1
  6
Continuous
100
AcDbLine
 10
286.2989999999999
 20
35.91299999999999
 30
0.0
 11
285.428
 21
35.91299999999999
 31
0.0
  0
LINE
  5
B9
330
1E
100
AcDbEntity
  8
1
  6
Continuous
100
AcDbLine
 10
286.2989999999999
 20
37.513
 30
0.0
 11
285.428
 21
37.513
 31
0.0
  0
TEXT
  5
BA
330
1E
100
AcDbEntity
  8
1
  6
Continuous
100
AcDbText
 10
286.2
 20
37.83599999999999
 30
0.0
 40
0.075
  1
0.80
  7
ROMANC
100
AcDbText
  0
LINE
  5
BB
330
1E
100
AcDbEntity
  8
1
  6
Continuous
100
AcDbLine
 10
286.1619999999999
 20
37.874
 30
0.0
 11
285.937
 21
37.874
 31
0.0
  0
LINE
  5
BC
330
1E
100
AcDbEntity
  8
1
  6
Continuous
100
AcDbLine
 10
286.511
 20
37.874
 30
0.0
 11
286.737
 21
37.874
 31
0.0
  0
LINE
  5
BD
330
1E
100
AcDbEntity
  8
1
  6
Continuous
100
AcDbLine
 10
285.8999999999999
 20
37.85499999999999
 30
0.0
 11
285.974
 21
37.893
 31
0.0
  0
LINE
  5
BE
330
1E
100
AcDbEntity
  8
1
  6
Continuous
100
AcDbLine
 10
286.7739999999999
 20
37.893
 30
0.0
 11
286.6999999999999
 21
37.85499999999999
 31
0.0
  0
LINE
  5
BF
330
1E
100
AcDbEntity
  8
1
  6
Continuous
100
AcDbLine
 10
285.937
 20
36.951
 30
0.0
 11
285.937
 21
37.91199999999999
 31
0.0
  0
LINE
  5
C0
330
1E
100
AcDbEntity
  8
1
  6
Continuous
100
AcDbLine
 10
286.737
 20
36.951
 30
0.0
 11
286.737
 21
37.91199999999999
 31
0.0
  0
LINE
  5
C3
330
1E
100
AcDbEntity
  8
0
100
AcDbLine
 10
287.452
 20
36.913
 30
0.0
 11
287.4508269948929
 21
36.68537530973912
 31
0.0
  0
LINE
  5
C4
330
1E
100
AcDbEntity
  8
0
100
AcDbLine
 10
287.4504103857879
 20
36.11376413798393
 30
0.0
 11
287.4508269948929
 21
36.35590802969386
 31
0.0
  0
LINE
  5
CC
330
1E
100
AcDbEntity
  8
0
100
AcDbLine
 10
287.4502126153969
 20
35.33064253447952
 30
0.0
 11
287.4502126153969
 21
35.5656474332008
 31
0.0
  0
LINE
  5
CD
330
1E
100
AcDbEntity
  8
1
  6
Continuous
100
AcDbLine
 10
287.4314103857879
 20
36.15076413798394
 30
0.0
 11
287.4694103857878
 21
36.07676413798393
 31
0.0
  0
ENDSEC
  0
SECTION
  2
OBJECTS
  0
DICTIONARY
  5
C
330
0
100
AcDbDictionary
281
     1
  3
ACAD_GROUP
350
D
  3
ACAD_LAYOUT
350
19
  3
ACAD_MLINESTYLE
350
16
  3
ACAD_PLOTSETTINGS
350
18
  3
ACAD_PLOTSTYLENAME
350
E
  3
AcDbVariableDictionary
350
CE
  0
DICTIONARY
  5
D
102
{ACAD_REACTORS
330
C
102
}
330
C
100
AcDbDictionary
281
     1
  0
DICTIONARY
  5
19
102
{ACAD_REACTORS
330
C
102
}
330
C
100
AcDbDictionary
281
     1
  3
Model
350
21
  3
Presentación1
350
1D
  0
DICTIONARY
  5
16
102
{ACAD_REACTORS
330
C
102
}
330
C
100
AcDbDictionary
281
     1
  3
Standard
350
17
  0
DICTIONARY
  5
18
102
{ACAD_REACTORS
330
C
102
}
330
C
100
AcDbDictionary
281
     1
  0
ACDBDICTIONARYWDFLT
  5
E
102
{ACAD_REACTORS
330
C
102
}
330
C
100
AcDbDictionary
281
     1
  3
Normal
350
F
100
AcDbDictionaryWithDefault
340
F
  0
DICTIONARY
  5
CE
102
{ACAD_REACTORS
330
C
102
}
330
C
100
AcDbDictionary
281
     1
  3
DIMASSOC
350
CF
  0
LAYOUT
  5
21
102
{ACAD_REACTORS
330
19
102
}
330
19
100
AcDbPlotSettings
  1

  2
Acrobat PDFWriter
  4

  6

 40
0.0
 41
0.0
 42
0.0
 43
0.0
 44
0.0
 45
0.0
 46
0.0
 47
0.0
 48
0.0
 49
0.0
140
0.0
141
0.0
142
1.0
143
1.0
 70
  1712
 72
     0
 73
     0
 74
     0
  7

 75
     0
147
1.0
148
0.0
149
0.0
100
AcDbLayout
  1
Model
 70
     1
 71
     0
 10
0.0
 20
0.0
 11
12.0
 21
9.0
 12
0.0
 22
0.0
 32
0.0
 14
0.0
 24
0.0
 34
0.0
 15
0.0
 25
0.0
 35
0.0
146
0.0
 13
0.0
 23
0.0
 33
0.0
 16
1.0
 26
0.0
 36
0.0
 17
0.0
 27
1.0
 37
0.0
 76
     0
330
1E
  0
LAYOUT
  5
1D
102
{ACAD_REACTORS
330
19
102
}
330
19
100
AcDbPlotSettings
  1

  2
Acrobat PDFWriter
  4

  6

 40
0.0
 41
0.0
 42
0.0
 43
0.0
 44
0.0
 45
0.0
 46
0.0
 47
0.0
 48
0.0
 49
0.0
140
0.0
141
0.0
142
1.0
143
1.0
 70
   688
 72
     0
 73
     0
 74
     5
  7

 75
    16
147
1.0
148
0.0
149
0.0
100
AcDbLayout
  1
Presentación1
 70
     1
 71
     1
 10
0.0
 20
0.0
 11
12.0
 21
9.0
 12
0.0
 22
0.0
 32
0.0
 14
1.000000000000000E+20
 24
1.000000000000000E+20
 34
1.000000000000000E+20
 15
-1.000000000000000E+20
 25
-1.000000000000000E+20
 35
-1.000000000000000E+20
146
0.0
 13
0.0
 23
0.0
 33
0.0
 16
1.0
 26
0.0
 36
0.0
 17
0.0
 27
1.0
 37
0.0
 76
     0
330
1A
  0
MLINESTYLE
  5
17
102
{ACAD_REACTORS
330
16
102
}
330
16
100
AcDbMlineStyle
  2
STANDARD
 70
     0
  3

 62
   256
 51
90.0
 52
90.0
 71
     2
 49
0.5
 62
   256
  6
BYLAYER
 49
-0.5
 62
   256
  6
BYLAYER
  0
ACDBPLACEHOLDER
  5
F
102
{ACAD_REACTORS
330
E
102
}
330
E
  0
DICTIONARYVAR
  5
CF
102
{ACAD_REACTORS
330
CE
102
}
330
CE
100
DictionaryVariables
280
     0
  1
1
  0
ENDSEC
  0
EOF
