  0
SECTION
  2
HEADER
  9
$ACADVER
  1
AC1009
  9
$INSBASE
 10
176.93817
 20
-4.051348
 30
0.0
  9
$EXTMIN
 10
140.175068
 20
-27.532393
 30
0.0
  9
$EXTMAX
 10
351.54669
 20
43.022959
 30
0.0
  9
$LIMMIN
 10
0.0
 20
0.0
  9
$LIMMAX
 10
410.0
 20
287.0
  9
$ORTHOMODE
 70
     0
  9
$REGENMODE
 70
     1
  9
$FILLMODE
 70
     1
  9
$QTEXTMODE
 70
     0
  9
$MIRRTEXT
 70
     1
  9
$DRAGMODE
 70
     2
  9
$LTSCALE
 40
25.0
  9
$OSMODE
 70
    32
  9
$ATTMODE
 70
     1
  9
$TEXTSIZE
 40
0.1
  9
$TRACEWID
 40
1.0
  9
$TEXTSTYLE
  7
ROMANC
  9
$CLAYER
  8
0
  9
$CELTYPE
  6
BYLAYER
  9
$CECOLOR
 62
   256
  9
$DIMSCALE
 40
0.0
  9
$DIMASZ
 40
0.0
  9
$DIMEXO
 40
0.1
  9
$DIMDLI
 40
7.0
  9
$DIMRND
 40
0.0
  9
$DIMDLE
 40
0.0
  9
$DIMEXE
 40
1.8
  9
$DIMTP
 40
0.0
  9
$DIMTM
 40
0.0
  9
$DIMTXT
 40
0.03
  9
$DIMCEN
 40
1.5
  9
$DIMTSZ
 40
1.0
  9
$DIMTOL
 70
     0
  9
$DIMLIM
 70
     0
  9
$DIMTIH
 70
     0
  9
$DIMTOH
 70
     0
  9
$DIMSE1
 70
     0
  9
$DIMSE2
 70
     0
  9
$DIMTAD
 70
     0
  9
$DIMZIN
 70
     0
  9
$DIMBLK
  1

  9
$DIMASO
 70
     1
  9
$DIMSHO
 70
     0
  9
$DIMPOST
  1

  9
$DIMAPOST
  1

  9
$DIMALT
 70
     0
  9
$DIMALTD
 70
     2
  9
$DIMALTF
 40
25.4
  9
$DIMLFAC
 40
1.0
  9
$DIMTOFL
 70
     1
  9
$DIMTVP
 40
0.0
  9
$DIMTIX
 70
     1
  9
$DIMSOXD
 70
     0
  9
$DIMSAH
 70
     0
  9
$DIMBLK1
  1

  9
$DIMBLK2
  1

  9
$DIMSTYLE
  2
*UNNAMED
  9
$DIMCLRD
 70
     0
  9
$DIMCLRE
 70
     0
  9
$DIMCLRT
 70
     0
  9
$DIMTFAC
 40
116.666667
  9
$DIMGAP
 40
0.09
  9
$LUNITS
 70
     2
  9
$LUPREC
 70
     2
  9
$SKETCHINC
 40
1.0
  9
$FILLETRAD
 40
0.0
  9
$AUNITS
 70
     0
  9
$AUPREC
 70
     0
  9
$MENU
  1
acad
  9
$ELEVATION
 40
0.0
  9
$PELEVATION
 40
0.0
  9
$THICKNESS
 40
0.0
  9
$LIMCHECK
 70
     0
  9
$BLIPMODE
 70
     0
  9
$CHAMFERA
 40
0.0
  9
$CHAMFERB
 40
0.0
  9
$SKPOLY
 70
     0
  9
$TDCREATE
 40
2449967.702565046
  9
$TDUPDATE
 40
2449967.702565046
  9
$TDINDWG
 40
0.0000000000
  9
$TDUSRTIMER
 40
0.0000000000
  9
$USRTIMER
 70
     1
  9
$ANGBASE
 50
0.0
  9
$ANGDIR
 70
     0
  9
$PDMODE
 70
     0
  9
$PDSIZE
 40
0.0
  9
$PLINEWID
 40
0.0
  9
$COORDS
 70
     0
  9
$SPLFRAME
 70
     0
  9
$SPLINETYPE
 70
     6
  9
$SPLINESEGS
 70
     8
  9
$ATTDIA
 70
     0
  9
$ATTREQ
 70
     1
  9
$HANDLING
 70
     0
  9
$HANDSEED
  5
0
  9
$SURFTAB1
 70
     6
  9
$SURFTAB2
 70
     6
  9
$SURFTYPE
 70
     6
  9
$SURFU
 70
     6
  9
$SURFV
 70
     6
  9
$UCSNAME
  2

  9
$UCSORG
 10
0.0
 20
0.0
 30
0.0
  9
$UCSXDIR
 10
1.0
 20
0.0
 30
0.0
  9
$UCSYDIR
 10
0.0
 20
1.0
 30
0.0
  9
$PUCSNAME
  2

  9
$PUCSORG
 10
0.0
 20
0.0
 30
0.0
  9
$PUCSXDIR
 10
1.0
 20
0.0
 30
0.0
  9
$PUCSYDIR
 10
0.0
 20
1.0
 30
0.0
  9
$USERI1
 70
     0
  9
$USERI2
 70
     0
  9
$USERI3
 70
     0
  9
$USERI4
 70
     0
  9
$USERI5
 70
     0
  9
$USERR1
 40
0.0
  9
$USERR2
 40
0.0
  9
$USERR3
 40
0.0
  9
$USERR4
 40
0.0
  9
$USERR5
 40
0.0
  9
$WORLDVIEW
 70
     1
  9
$SHADEDGE
 70
     3
  9
$SHADEDIF
 70
    70
  9
$TILEMODE
 70
     1
  9
$MAXACTVP
 70
    16
  9
$PINSBASE
 10
0.0
 20
0.0
 30
0.0
  9
$PLIMCHECK
 70
     0
  9
$PEXTMIN
 10
1.000000E+20
 20
1.000000E+20
 30
1.000000E+20
  9
$PEXTMAX
 10
-1.000000E+20
 20
-1.000000E+20
 30
-1.000000E+20
  9
$PLIMMIN
 10
0.0
 20
0.0
  9
$PLIMMAX
 10
12.0
 20
9.0
  9
$UNITMODE
 70
     0
  9
$VISRETAIN
 70
     0
  9
$PLINEGEN
 70
     0
  9
$PSLTSCALE
 70
     0
  9
$TREEDEPTH
 70
  3020
  9
$DWGCODEPAGE
  3
iso8859-1
  0
ENDSEC
  0
SECTION
  2
TABLES
  0
TABLE
  2
VPORT
 70
     1
  0
VPORT
  2
*ACTIVE
 70
     0
 10
0.0
 20
0.0
 11
1.0
 21
1.0
 12
176.900535
 22
4.323328
 13
0.0
 23
0.0
 14
1.0
 24
1.0
 15
10.0
 25
10.0
 16
0.0
 26
0.0
 36
1.0
 17
0.0
 27
0.0
 37
0.0
 40
18.533846
 41
1.639742
 42
50.0
 43
0.0
 44
0.0
 50
0.0
 51
0.0
 71
     0
 72
   100
 73
     1
 74
     0
 75
     0
 76
     0
 77
     0
 78
     1
  0
ENDTAB
  0
TABLE
  2
LTYPE
 70
     1
  0
LTYPE
  2
CONTINUOUS
 70
    64
  3
Solid line
 72
    65
 73
     0
 40
0.0
  0
ENDTAB
  0
TABLE
  2
LAYER
 70
     1
  0
LAYER
  2
0
 70
    64
 62
     7
  6
CONTINUOUS
  0
ENDTAB
  0
TABLE
  2
STYLE
 70
     2
  0
STYLE
  2
STANDARD
 70
     0
 40
0.0
 41
1.0
 50
0.0
 71
     0
 42
0.1
  3
txt
  4

  0
STYLE
  2
ROMANC
 70
    64
 40
0.0
 41
1.0
 50
0.0
 71
     0
 42
0.1
  3
romanc
  4

  0
ENDTAB
  0
TABLE
  2
VIEW
 70
     0
  0
ENDTAB
  0
TABLE
  2
UCS
 70
     0
  0
ENDTAB
  0
TABLE
  2
APPID
 70
     1
  0
APPID
  2
ACAD
 70
    64
  0
ENDTAB
  0
TABLE
  2
DIMSTYLE
 70
     0
  0
ENDTAB
  0
ENDSEC
  0
SECTION
  2
BLOCKS
  0
ENDSEC
  0
SECTION
  2
ENTITIES
  0
TEXT
  8
0
 10
183.228713
 20
0.716754
 30
0.0
 40
0.1
  1
0.3
  7
ROMANC
  0
LINE
  8
0
 10
182.083417
 20
0.927884
 30
0.0
 11
182.083417
 21
0.327884
 31
0.0
  0
LINE
  8
0
 10
181.683417
 20
0.927884
 30
0.0
 11
181.683417
 21
0.327884
 31
0.0
  0
LINE
  8
0
 10
181.373417
 20
0.927884
 30
0.0
 11
181.373417
 21
-0.272116
 31
0.0
  0
LINE
  8
0
 10
182.393417
 20
0.927884
 30
0.0
 11
182.393417
 21
-0.272116
 31
0.0
  0
LINE
  8
0
 10
183.083417
 20
0.627884
 30
0.0
 11
183.083417
 21
1.777884
 31
0.0
  0
LINE
  8
0
 10
187.43817
 20
-4.051348
 30
0.0
 11
187.43817
 21
10.798652
 31
0.0
  0
LINE
  8
0
 10
176.93817
 20
10.798652
 30
0.0
 11
176.93817
 21
-4.051348
 31
0.0
  0
LINE
  8
0
 10
176.93817
 20
-4.051348
 30
0.0
 11
187.43817
 21
-4.051348
 31
0.0
  0
LINE
  8
0
 10
181.310335
 20
-0.341348
 30
0.0
 11
181.436498
 21
-0.202884
 31
0.0
  0
LINE
  8
0
 10
182.330335
 20
-0.341348
 30
0.0
 11
182.456498
 21
-0.202884
 31
0.0
  0
LINE
  8
0
 10
181.620335
 20
0.258652
 30
0.0
 11
181.746498
 21
0.397116
 31
0.0
  0
LINE
  8
0
 10
182.020335
 20
0.258652
 30
0.0
 11
182.146498
 21
0.397116
 31
0.0
  0
LINE
  8
0
 10
183.020335
 20
0.558652
 30
0.0
 11
183.146498
 21
0.697116
 31
0.0
  0
TEXT
  8
0
 10
181.783634
 20
-0.564666
 30
0.0
 40
0.1
  1
1.02
  7
ROMANC
  0
TEXT
  8
0
 10
181.803987
 20
0.147234
 30
0.0
 40
0.1
  1
0.4
  7
ROMANC
  0
LINE
  8
0
 10
181.883417
 20
0.627884
 30
0.0
 11
183.083417
 21
0.627884
 31
0.0
  0
LINE
  8
0
 10
181.373417
 20
-0.272116
 30
0.0
 11
182.393417
 21
-0.272116
 31
0.0
  0
LINE
  8
0
 10
181.683417
 20
0.327884
 30
0.0
 11
182.083417
 21
0.327884
 31
0.0
  0
TEXT
  8
0
 10
179.468143
 20
8.394512
 30
0.0
 40
0.3
  1
TIPUS   NT104A
  7
ROMANC
  0
TEXT
  8
0
 10
179.468143
 20
7.908797
 30
0.0
 40
0.3
  1
ESCALA  1:50
  7
ROMANC
  0
TEXT
  8
0
 10
179.481237
 20
7.310207
 30
0.0
 40
0.3
  1
S = 104 dm
  7
ROMANC
  0
TEXT
  8
0
 10
179.430221
 20
6.612628
 30
0.0
 40
0.3
  1
P = 43.2 dm
  7
ROMANC
  0
LINE
  8
0
 10
187.43817
 20
10.798652
 30
0.0
 11
176.93817
 21
10.798652
 31
0.0
  0
LINE
  8
0
 10
183.020335
 20
0.858652
 30
0.0
 11
183.146498
 21
0.997116
 31
0.0
  0
LINE
  8
0
 10
183.020335
 20
1.708652
 30
0.0
 11
183.146498
 21
1.847116
 31
0.0
  0
LINE
  8
0
 10
181.220335
 20
2.308652
 30
0.0
 11
181.346498
 21
2.447116
 31
0.0
  0
LINE
  8
0
 10
182.420335
 20
2.308652
 30
0.0
 11
182.546498
 21
2.447116
 31
0.0
  0
TEXT
  8
0
 10
181.783634
 20
2.547354
 30
0.0
 40
0.1
  1
1.18
  7
ROMANC
  0
TEXT
  8
0
 10
183.228713
 20
1.286274
 30
0.0
 40
0.1
  1
0.85
  7
ROMANC
  0
LINE
  8
0
 10
181.283417
 20
1.777884
 30
0.0
 11
181.283417
 21
2.377884
 31
0.0
  0
LINE
  8
0
 10
182.483417
 20
1.777884
 30
0.0
 11
182.483417
 21
2.377884
 31
0.0
  0
LINE
  8
0
 10
182.393417
 20
0.927884
 30
0.0
 11
183.083417
 21
0.927884
 31
0.0
  0
LINE
  8
0
 10
182.483417
 20
1.777884
 30
0.0
 11
183.083417
 21
1.777884
 31
0.0
  0
LINE
  8
0
 10
182.483417
 20
2.377884
 30
0.0
 11
181.283417
 21
2.377884
 31
0.0
  0
TEXT
  8
0
 10
182.664646
 20
7.616124
 30
0.0
 40
0.1
  1
2
  7
ROMANC
  0
ARC
  8
0
 10
182.131857
 20
0.927884
 30
0.0
 40
0.44844
 50
180.0
 51
195.437085
  0
ARC
  8
0
 10
182.00952
 20
0.894102
 30
0.0
 40
0.321525
 50
195.437085
 51
213.690068
  0
ARC
  8
0
 10
181.932178
 20
0.84254
 30
0.0
 40
0.228571
 50
213.690068
 51
238.146475
  0
ARC
  8
0
 10
181.883417
 20
0.76406
 30
0.0
 40
0.136176
 50
238.146475
 51
270.0
  0
ARC
  8
0
 10
181.883417
 20
0.76406
 30
0.0
 40
0.136176
 50
270.0
 51
301.853525
  0
ARC
  8
0
 10
181.834656
 20
0.84254
 30
0.0
 40
0.228571
 50
301.853525
 51
326.309932
  0
ARC
  8
0
 10
181.757314
 20
0.894102
 30
0.0
 40
0.321525
 50
326.309932
 51
344.562915
  0
ARC
  8
0
 10
181.634977
 20
0.927884
 30
0.0
 40
0.44844
 50
344.562915
 51
0.0
  0
LINE
  8
0
 10
182.083417
 20
0.927884
 30
0.0
 11
182.393417
 21
0.927884
 31
0.0
  0
LINE
  8
0
 10
182.393417
 20
0.927884
 30
0.0
 11
182.483417
 21
1.777884
 31
0.0
  0
LINE
  8
0
 10
182.483417
 20
1.777884
 30
0.0
 11
181.283417
 21
1.777884
 31
0.0
  0
LINE
  8
0
 10
181.283417
 20
1.777884
 30
0.0
 11
181.373417
 21
0.927884
 31
0.0
  0
LINE
  8
0
 10
181.373417
 20
0.927884
 30
0.0
 11
181.683417
 21
0.927884
 31
0.0
  0
ARC
  8
0
 10
182.131857
 20
0.927884
 30
0.0
 40
0.45844
 50
181.249899
 51
195.437085
  0
ARC
  8
0
 10
182.00952
 20
0.894102
 30
0.0
 40
0.331525
 50
195.437085
 51
213.690068
  0
ARC
  8
0
 10
181.932178
 20
0.84254
 30
0.0
 40
0.238571
 50
213.690068
 51
238.146475
  0
ARC
  8
0
 10
181.883417
 20
0.76406
 30
0.0
 40
0.146176
 50
238.146475
 51
270.0
  0
ARC
  8
0
 10
181.883417
 20
0.76406
 30
0.0
 40
0.146176
 50
270.0
 51
301.853525
  0
ARC
  8
0
 10
181.834656
 20
0.84254
 30
0.0
 40
0.238571
 50
301.853525
 51
326.309932
  0
ARC
  8
0
 10
181.757314
 20
0.894102
 30
0.0
 40
0.331525
 50
326.309932
 51
344.562915
  0
ARC
  8
0
 10
181.634977
 20
0.927884
 30
0.0
 40
0.45844
 50
344.562915
 51
358.750101
  0
LINE
  8
0
 10
182.093308
 20
0.917884
 30
0.0
 11
182.402414
 21
0.917884
 31
0.0
  0
LINE
  8
0
 10
182.402414
 20
0.917884
 30
0.0
 11
182.494532
 21
1.787884
 31
0.0
  0
LINE
  8
0
 10
182.494532
 20
1.787884
 30
0.0
 11
181.272302
 21
1.787884
 31
0.0
  0
LINE
  8
0
 10
181.272302
 20
1.787884
 30
0.0
 11
181.36442
 21
0.917884
 31
0.0
  0
LINE
  8
0
 10
181.36442
 20
0.917884
 30
0.0
 11
181.673526
 21
0.917884
 31
0.0
  0
ARC
  8
0
 10
182.131857
 20
0.927884
 30
0.0
 40
0.43844
 50
178.693076
 51
195.437085
  0
ARC
  8
0
 10
182.00952
 20
0.894102
 30
0.0
 40
0.311525
 50
195.437085
 51
213.690068
  0
ARC
  8
0
 10
181.932178
 20
0.84254
 30
0.0
 40
0.218571
 50
213.690068
 51
238.146475
  0
ARC
  8
0
 10
181.883417
 20
0.76406
 30
0.0
 40
0.126176
 50
238.146475
 51
270.0
  0
ARC
  8
0
 10
181.883417
 20
0.76406
 30
0.0
 40
0.126176
 50
270.0
 51
301.853525
  0
ARC
  8
0
 10
181.834656
 20
0.84254
 30
0.0
 40
0.218571
 50
301.853525
 51
326.309932
  0
ARC
  8
0
 10
181.757314
 20
0.894102
 30
0.0
 40
0.311525
 50
326.309932
 51
344.562915
  0
ARC
  8
0
 10
181.634977
 20
0.927884
 30
0.0
 40
0.43844
 50
344.562915
 51
1.306924
  0
LINE
  8
0
 10
182.073303
 20
0.937884
 30
0.0
 11
182.38442
 21
0.937884
 31
0.0
  0
LINE
  8
0
 10
182.38442
 20
0.937884
 30
0.0
 11
182.472302
 21
1.767884
 31
0.0
  0
LINE
  8
0
 10
182.472302
 20
1.767884
 30
0.0
 11
181.294532
 21
1.767884
 31
0.0
  0
LINE
  8
0
 10
181.294532
 20
1.767884
 30
0.0
 11
181.382414
 21
0.937884
 31
0.0
  0
LINE
  8
0
 10
181.382414
 20
0.937884
 30
0.0
 11
181.693531
 21
0.937884
 31
0.0
  0
ENDSEC
  0
EOF
