  0
SECTION
  2
ENTITIES
  0
LINE
  8
0
 10
180.642909
 20
95.784754
 30
0.0
 11
180.642909
 21
80.934754
 31
0.0
  0
LINE
  8
0
 10
191.142909
 20
80.934754
 30
0.0
 11
191.142909
 21
95.784754
 31
0.0
  0
LINE
  8
0
 10
180.642909
 20
80.934754
 30
0.0
 11
191.142909
 21
80.934754
 31
0.0
  0
LINE
  8
0
 10
191.142909
 20
95.784754
 30
0.0
 11
180.642909
 21
95.784754
 31
0.0
  0
LINE
  8
0
 10
184.955135
 20
88.278008
 30
0.0
 11
185.834726
 21
88.278008
 31
0.0
  0
LINE
  8
MESURA
  6
BYBLOCK
 62
     0
 10
184.855135
 20
88.178008
 30
0.0
 11
185.055135
 21
88.378008
 31
0.0
  0
POLYLINE
  8
0
 66
     1
 10
0.0
 20
0.0
 30
0.0
  0
VERTEX
  8
0
 10
184.969806
 20
87.153203
 30
0.0
  0
VERTEX
  8
0
 10
185.098529
 20
86.341981
 30
0.0
  0
VERTEX
  8
0
 10
185.233529
 20
86.341981
 30
0.0
 42
0.011091
 50
203.805944
  0
VERTEX
  8
0
 10
185.233494
 20
86.340381
 30
0.0
 42
0.190736
  0
VERTEX
  8
0
 10
185.243269
 20
86.315687
 30
0.0
 42
0.100692
  0
VERTEX
  8
0
 10
185.283286
 20
86.287348
 30
0.0
 42
0.058754
 70
     2
 50
336.194056
  0
VERTEX
  8
0
 10
185.334397
 20
86.271642
 30
0.0
 42
0.045218
 50
336.194056
  0
VERTEX
  8
0
 10
185.403494
 20
86.265381
 30
0.0
 42
0.045218
  0
VERTEX
  8
0
 10
185.47259
 20
86.271642
 30
0.0
 42
0.058754
  0
VERTEX
  8
0
 10
185.523702
 20
86.287348
 30
0.0
 42
0.100692
 70
     2
 50
23.805944
  0
VERTEX
  8
0
 10
185.563718
 20
86.315687
 30
0.0
 42
0.190736
 50
23.805944
  0
VERTEX
  8
0
 10
185.573494
 20
86.340381
 30
0.0
 42
0.011091
  0
VERTEX
  8
0
 10
185.573458
 20
86.341981
 30
0.0
  0
VERTEX
  8
0
 10
185.708458
 20
86.341981
 30
0.0
  0
VERTEX
  8
0
 10
185.819223
 20
87.168213
 30
0.0
 42
0.070939
  0
VERTEX
  8
0
 10
185.785417
 20
87.41374
 30
0.0
 42
0.081243
  0
VERTEX
  8
0
 10
185.695212
 20
87.605953
 30
0.0
 42
0.106988
 70
     2
 50
124.430009
  0
VERTEX
  8
0
 10
185.548193
 20
87.744771
 30
0.0
 42
0.13673
 50
124.430009
  0
VERTEX
  8
0
 10
185.394692
 20
87.787547
 30
0.0
 42
0.13673
  0
VERTEX
  8
0
 10
185.24119
 20
87.744771
 30
0.0
 42
0.106988
  0
VERTEX
  8
0
 10
185.094171
 20
87.605953
 30
0.0
 42
0.081243
 70
     2
 50
235.569991
  0
VERTEX
  8
0
 10
185.003966
 20
87.41374
 30
0.0
 42
0.069274
 50
235.569991
  0
VERTEX
  8
0
 10
184.969692
 20
87.167547
 30
0.0
 42
0.069274
  0
SEQEND
  8
0
  0
POLYLINE
  8
0
 66
     1
 10
0.0
 20
0.0
 30
0.0
  0
VERTEX
  8
0
 10
184.959929
 20
87.151636
 30
0.0
  0
VERTEX
  8
0
 10
185.089991
 20
86.331981
 30
0.0
  0
VERTEX
  8
0
 10
185.224266
 20
86.331981
 30
0.0
 42
0.143615
  0
VERTEX
  8
0
 10
185.235979
 20
86.308842
 30
0.0
 42
0.100692
  0
VERTEX
  8
0
 10
185.279249
 20
86.278199
 30
0.0
 42
0.058754
 70
     2
 50
336.194056
  0
VERTEX
  8
0
 10
185.3326
 20
86.261805
 30
0.0
 42
0.045218
 50
336.194056
  0
VERTEX
  8
0
 10
185.403494
 20
86.255381
 30
0.0
 42
0.045218
  0
VERTEX
  8
0
 10
185.474388
 20
86.261805
 30
0.0
 42
0.058754
  0
VERTEX
  8
0
 10
185.527738
 20
86.278199
 30
0.0
 42
0.100692
 70
     2
 50
23.805944
  0
VERTEX
  8
0
 10
185.571008
 20
86.308842
 30
0.0
 42
0.143615
  0
VERTEX
  8
0
 10
185.582722
 20
86.331981
 30
0.0
  0
VERTEX
  8
0
 10
185.717207
 20
86.331981
 30
0.0
  0
VERTEX
  8
0
 10
185.82922
 20
87.16752
 30
0.0
 42
0.071119
  0
VERTEX
  8
0
 10
185.795035
 20
87.41648
 30
0.0
 42
0.08124
  0
VERTEX
  8
0
 10
185.70346
 20
87.611607
 30
0.0
 42
0.106988
 70
     2
 50
124.430009
  0
VERTEX
  8
0
 10
185.553365
 20
87.753329
 30
0.0
 42
0.13673
 50
124.430009
  0
VERTEX
  8
0
 10
185.394692
 20
87.797547
 30
0.0
 42
0.13673
  0
VERTEX
  8
0
 10
185.236018
 20
87.753329
 30
0.0
 42
0.106988
  0
VERTEX
  8
0
 10
185.085923
 20
87.611607
 30
0.0
 42
0.081243
 70
     2
 50
235.569991
  0
VERTEX
  8
0
 10
184.994346
 20
87.416471
 30
0.0
 42
0.069274
 50
235.569991
  0
VERTEX
  8
0
 10
184.959692
 20
87.167547
 30
0.0
 42
0.069274
 50
235.569991
  0
SEQEND
  8
0
  0
POLYLINE
  8
0
 66
     1
 10
0.0
 20
0.0
 30
0.0
  0
VERTEX
  8
0
 10
184.979682
 20
87.15477
 30
0.0
  0
VERTEX
  8
0
 10
185.107067
 20
86.351981
 30
0.0
  0
VERTEX
  8
0
 10
185.246216
 20
86.351981
 30
0.0
 42
0.115759
 50
203.805944
  0
VERTEX
  8
0
 10
185.243494
 20
86.340381
 30
0.0
 42
0.190736
  0
VERTEX
  8
0
 10
185.25056
 20
86.322531
 30
0.0
 42
0.100692
  0
VERTEX
  8
0
 10
185.287322
 20
86.296497
 30
0.0
 42
0.058754
 70
     2
 50
336.194056
  0
VERTEX
  8
0
 10
185.336195
 20
86.281479
 30
0.0
 42
0.045218
 50
336.194056
  0
VERTEX
  8
0
 10
185.403494
 20
86.275381
 30
0.0
 42
0.045218
  0
VERTEX
  8
0
 10
185.470792
 20
86.281479
 30
0.0
 42
0.058754
  0
VERTEX
  8
0
 10
185.519665
 20
86.296497
 30
0.0
 42
0.100692
 70
     2
 50
23.805944
  0
VERTEX
  8
0
 10
185.556428
 20
86.322531
 30
0.0
 42
0.190736
 50
23.805944
  0
VERTEX
  8
0
 10
185.563494
 20
86.340381
 30
0.0
 42
0.115759
  0
VERTEX
  8
0
 10
185.560772
 20
86.351981
 30
0.0
  0
VERTEX
  8
0
 10
185.699709
 20
86.351981
 30
0.0
  0
VERTEX
  8
0
 10
185.809226
 20
87.168903
 30
0.0
 42
0.070753
  0
VERTEX
  8
0
 10
185.775798
 20
87.411008
 30
0.0
 42
0.081243
  0
VERTEX
  8
0
 10
185.686964
 20
87.600299
 30
0.0
 42
0.106988
 70
     2
 50
124.430009
  0
VERTEX
  8
0
 10
185.543022
 20
87.736212
 30
0.0
 42
0.13673
 50
124.430009
  0
VERTEX
  8
0
 10
185.394692
 20
87.777547
 30
0.0
 42
0.13673
  0
VERTEX
  8
0
 10
185.246362
 20
87.736212
 30
0.0
 42
0.106988
  0
VERTEX
  8
0
 10
185.102419
 20
87.600299
 30
0.0
 42
0.081243
 70
     2
 50
235.569991
  0
VERTEX
  8
0
 10
185.013586
 20
87.411008
 30
0.0
 42
0.069274
 50
235.569991
  0
VERTEX
  8
0
 10
184.979692
 20
87.167547
 30
0.0
 42
0.069274
 50
235.569991
  0
SEQEND
  8
0
  0
POLYLINE
  8
0
 66
     1
 10
0.0
 20
0.0
 30
0.0
  0
VERTEX
  8
0
 10
184.950053
 20
87.150068
 30
0.0
  0
VERTEX
  8
0
 10
185.081452
 20
86.321981
 30
0.0
  0
VERTEX
  8
0
 10
185.216598
 20
86.321981
 30
0.0
 42
0.10528
  0
VERTEX
  8
0
 10
185.228689
 20
86.301997
 30
0.0
 42
0.100692
  0
VERTEX
  8
0
 10
185.275213
 20
86.269049
 30
0.0
 42
0.058754
 70
     2
 50
336.194056
  0
VERTEX
  8
0
 10
185.330802
 20
86.251968
 30
0.0
 42
0.045218
 50
336.194056
  0
VERTEX
  8
0
 10
185.403494
 20
86.245381
 30
0.0
 42
0.045218
  0
VERTEX
  8
0
 10
185.476185
 20
86.251968
 30
0.0
 42
0.058754
  0
VERTEX
  8
0
 10
185.531775
 20
86.269049
 30
0.0
 42
0.100692
 70
     2
 50
23.805944
  0
VERTEX
  8
0
 10
185.578299
 20
86.301997
 30
0.0
 42
0.10528
  0
VERTEX
  8
0
 10
185.590389
 20
86.321981
 30
0.0
  0
VERTEX
  8
0
 10
185.725956
 20
86.321981
 30
0.0
  0
VERTEX
  8
0
 10
185.839216
 20
87.166823
 30
0.0
 42
0.071296
  0
VERTEX
  8
0
 10
185.804652
 20
87.41922
 30
0.0
 42
0.081237
  0
VERTEX
  8
0
 10
185.711708
 20
87.617261
 30
0.0
 42
0.106988
 70
     2
 50
124.430009
  0
VERTEX
  8
0
 10
185.558537
 20
87.761888
 30
0.0
 42
0.13673
 50
124.430009
  0
VERTEX
  8
0
 10
185.394692
 20
87.807547
 30
0.0
 42
0.13673
  0
VERTEX
  8
0
 10
185.230846
 20
87.761888
 30
0.0
 42
0.106988
  0
VERTEX
  8
0
 10
185.077675
 20
87.617261
 30
0.0
 42
0.081243
 70
     2
 50
235.569991
  0
VERTEX
  8
0
 10
184.984726
 20
87.419203
 30
0.0
 42
0.069274
 50
235.569991
  0
VERTEX
  8
0
 10
184.949692
 20
87.167547
 30
0.0
 42
0.069274
 50
235.569991
  0
SEQEND
  8
0
  0
POLYLINE
  8
0
 66
     1
 10
0.0
 20
0.0
 30
0.0
  0
VERTEX
  8
0
 10
184.969692
 20
87.167547
 30
0.0
 42
0.003979
  0
VERTEX
  8
0
 10
184.969806
 20
87.153203
 30
0.0
 42
0.081243
  0
SEQEND
  8
0
  0
LINE
  8
0
 10
184.955135
 20
88.278008
 30
0.0
 11
184.955135
 21
87.151765
 31
0.0
  0
LINE
  8
0
 10
185.383898
 20
86.24983
 30
0.0
 11
186.30808
 21
86.24983
 31
0.0
  0
LINE
  8
0
 10
185.568841
 20
86.322659
 30
0.0
 11
186.307967
 21
86.321043
 31
0.0
  0
LINE
  8
0
 10
185.388827
 20
87.804568
 30
0.0
 11
186.305615
 21
87.80431
 31
0.0
  0
LINE
  8
0
 10
185.818973
 20
87.166346
 30
0.0
 11
186.30808
 21
87.166394
 31
0.0
  0
LINE
  8
MESURA
  6
BYBLOCK
 62
     0
 10
185.476727
 20
85.771542
 30
0.0
 11
185.676727
 21
85.971542
 31
0.0
  0
LINE
  8
MESURA
  6
BYBLOCK
 62
     0
 10
185.12659
 20
85.771542
 30
0.0
 11
185.32659
 21
85.971542
 31
0.0
  0
LINE
  8
MESURA
  6
BYBLOCK
 62
     0
 10
184.980988
 20
85.524868
 30
0.0
 11
185.180988
 21
85.724868
 31
0.0
  0
LINE
  8
MESURA
  6
BYBLOCK
 62
     0
 10
185.622329
 20
85.524868
 30
0.0
 11
185.822329
 21
85.724868
 31
0.0
  0
LINE
  8
MESURA
  6
BYBLOCK
 62
     0
 10
185.734726
 20
88.178008
 30
0.0
 11
185.934726
 21
88.378008
 31
0.0
  0
TEXT
  8
0
 10
185.194666
 20
88.423203
 30
0.0
 40
0.1
  1
0.85
  7
ROMANC
  0
TEXT
  8
0
 10
185.205408
 20
85.435021
 30
0.0
 40
0.1
  1
0.62
  7
ROMANC
  0
TEXT
  8
0
 10
185.205408
 20
85.726035
 30
0.0
 40
0.1
  1
0.35
  7
ROMANC
  0
LINE
  8
0
 10
185.080988
 20
86.324641
 30
0.0
 11
185.080988
 21
85.624868
 31
0.0
  0
LINE
  8
0
 10
185.22659
 20
85.871542
 30
0.0
 11
185.576727
 21
85.871542
 31
0.0
  0
LINE
  8
0
 10
185.722329
 20
86.324641
 30
0.0
 11
185.722329
 21
85.624868
 31
0.0
  0
LINE
  8
0
 10
185.080988
 20
85.624868
 30
0.0
 11
185.722329
 21
85.624868
 31
0.0
  0
LINE
  8
0
 10
185.22659
 20
86.346172
 30
0.0
 11
185.22659
 21
85.871542
 31
0.0
  0
LINE
  8
0
 10
185.576727
 20
86.346172
 30
0.0
 11
185.576727
 21
85.871542
 31
0.0
  0
LINE
  8
MESURA
  6
BYBLOCK
 62
     0
 10
186.20808
 20
86.14983
 30
0.0
 11
186.40808
 21
86.34983
 31
0.0
  0
LINE
  8
MESURA
  6
BYBLOCK
 62
     0
 10
186.207967
 20
86.221043
 30
0.0
 11
186.407967
 21
86.421043
 31
0.0
  0
LINE
  8
MESURA
  6
BYBLOCK
 62
     0
 10
186.20808
 20
87.066394
 30
0.0
 11
186.40808
 21
87.266394
 31
0.0
  0
LINE
  8
MESURA
  6
BYBLOCK
 62
     0
 10
186.205615
 20
87.70431
 30
0.0
 11
186.405615
 21
87.90431
 31
0.0
  0
TEXT
  8
0
 10
186.476977
 20
86.243101
 30
0.0
 40
0.1
  1
0.15
  7
ROMANC
  0
TEXT
  8
0
 10
186.468
 20
86.671642
 30
0.0
 40
0.1
  1
0.90
  7
ROMANC
  0
TEXT
  8
0
 10
186.450045
 20
87.469616
 30
0.0
 40
0.1
  1
0.62
  7
ROMANC
  0
LINE
  8
0
 10
186.305615
 20
87.80431
 30
0.0
 11
186.30808
 21
86.24983
 31
0.0
  0
LINE
  8
0
 10
185.834726
 20
88.278008
 30
0.0
 11
185.834726
 21
87.171385
 31
0.0
  0
TEXT
  8
0
 10
183.172881
 20
92.894898
 30
0.0
 40
0.3
  1
ESCALA  1:50
  7
ROMANC
  0
TEXT
  8
0
 10
183.185975
 20
92.296309
 30
0.0
 40
0.3
  1
S =  104 dm
  7
ROMANC
  0
TEXT
  8
0
 10
183.172881
 20
93.380613
 30
0.0
 40
0.3
  1
TIPUS   NT104
  7
ROMANC
  0
TEXT
  8
0
 10
183.179398
 20
91.743273
 30
0.0
 40
0.3
  1
P = 39.8 dm
  7
ROMANC
  0
TEXT
  8
0
 10
186.57508
 20
92.60962
 30
0.0
 40
0.1
  1
2
  7
ROMANC
  0
ENDSEC
  0
EOF
