  0
SECTION
  2
HEADER
  9
$ACADVER
  1
AC1009
  9
$INSBASE
 10
0.0
 20
0.0
 30
0.0
  9
$EXTMIN
 10
281.396000
 20
29.897000
 30
-2147483.648000
  9
$EXTMAX
 10
291.896000
 20
44.747000
 30
0.000000
  9
$LIMMIN
 10
280.396000
 20
28.897000
  9
$LIMMAX
 10
292.896000
 20
43.747000
  9
$ORTHOMODE
 70
     0
  9
$REGENMODE
 70
     1
  9
$FILLMODE
 70
     1
  9
$QTEXTMODE
 70
     0
  9
$MIRRTEXT
 70
     1
  9
$DRAGMODE
 70
     2
  9
$LTSCALE
 40
1.0
  9
$OSMODE
 70
     0
  9
$ATTMODE
 70
     1
  9
$TEXTSIZE
 40
0.2
  9
$TRACEWID
 40
0.05
  9
$TEXTSTYLE
  7
STANDARD
  9
$CLAYER
  8
0
  9
$CELTYPE
  6
BYLAYER
  9
$CECOLOR
 62
   256
  9
$DIMSCALE
 40
1.0
  9
$DIMASZ
 40
0.18
  9
$DIMEXO
 40
0.0625
  9
$DIMDLI
 40
0.38
  9
$DIMRND
 40
0.0
  9
$DIMDLE
 40
0.0
  9
$DIMEXE
 40
0.18
  9
$DIMTP
 40
0.0
  9
$DIMTM
 40
0.0
  9
$DIMTXT
 40
0.18
  9
$DIMCEN
 40
0.09
  9
$DIMTSZ
 40
0.0
  9
$DIMTOL
 70
     0
  9
$DIMLIM
 70
     0
  9
$DIMTIH
 70
     1
  9
$DIMTOH
 70
     1
  9
$DIMSE1
 70
     0
  9
$DIMSE2
 70
     0
  9
$DIMTAD
 70
     0
  9
$DIMZIN
 70
     0
  9
$DIMBLK
  1

  9
$DIMASO
 70
     1
  9
$DIMSHO
 70
     1
  9
$DIMPOST
  1

  9
$DIMAPOST
  1

  9
$DIMALT
 70
     0
  9
$DIMALTD
 70
     2
  9
$DIMALTF
 40
25.4
  9
$DIMLFAC
 40
1.0
  9
$DIMTOFL
 70
     0
  9
$DIMTVP
 40
0.0
  9
$DIMTIX
 70
     0
  9
$DIMSOXD
 70
     0
  9
$DIMSAH
 70
     0
  9
$DIMBLK1
  1

  9
$DIMBLK2
  1

  9
$DIMSTYLE
  2
*UNNAMED
  9
$DIMCLRD
 70
     0
  9
$DIMCLRE
 70
     0
  9
$DIMCLRT
 70
     0
  9
$DIMTFAC
 40
1.0
  9
$DIMGAP
 40
0.09
  9
$LUNITS
 70
     2
  9
$LUPREC
 70
     4
  9
$AXISMODE
 70
     0
  9
$AXISUNIT
 10
0.0
 20
0.0
  9
$SKETCHINC
 40
0.1
  9
$FILLETRAD
 40
0.0
  9
$AUNITS
 70
     0
  9
$AUPREC
 70
     0
  9
$MENU
  1
acad
  9
$ELEVATION
 40
0.0
  9
$PELEVATION
 40
0.0
  9
$THICKNESS
 40
0.0
  9
$LIMCHECK
 70
     0
  9
$BLIPMODE
 70
     1
  9
$CHAMFERA
 40
0.0
  9
$CHAMFERB
 40
0.0
  9
$SKPOLY
 70
     0
  9
$TDCREATE
 40
2448315.373408102
  9
$TDUPDATE
 40
2448315.373408102
  9
$TDINDWG
 40
0.0000000000
  9
$TDUSRTIMER
 40
0.0000000000
  9
$USRTIMER
 70
     1
  9
$ANGBASE
 50
0.0
  9
$ANGDIR
 70
     0
  9
$PDMODE
 70
     0
  9
$PDSIZE
 40
0.0
  9
$PLINEWID
 40
0.0
  9
$COORDS
 70
     0
  9
$SPLFRAME
 70
     0
  9
$SPLINETYPE
 70
     6
  9
$SPLINESEGS
 70
     8
  9
$ATTDIA
 70
     0
  9
$ATTREQ
 70
     1
  9
$HANDLING
 70
     0
  9
$HANDSEED
  5
0
  9
$SURFTAB1
 70
     6
  9
$SURFTAB2
 70
     6
  9
$SURFTYPE
 70
     6
  9
$SURFU
 70
     6
  9
$SURFV
 70
     6
  9
$UCSNAME
  2

  9
$UCSORG
 10
0.0
 20
0.0
 30
0.0
  9
$UCSXDIR
 10
1.0
 20
0.0
 30
0.0
  9
$UCSYDIR
 10
0.0
 20
1.0
 30
0.0
  9
$PUCSNAME
  2

  9
$PUCSORG
 10
0.0
 20
0.0
 30
0.0
  9
$PUCSXDIR
 10
1.0
 20
0.0
 30
0.0
  9
$PUCSYDIR
 10
0.0
 20
1.0
 30
0.0
  9
$USERI1
 70
     0
  9
$USERI2
 70
     0
  9
$USERI3
 70
     0
  9
$USERI4
 70
     0
  9
$USERI5
 70
     0
  9
$USERR1
 40
0.0
  9
$USERR2
 40
0.0
  9
$USERR3
 40
0.0
  9
$USERR4
 40
0.0
  9
$USERR5
 40
0.0
  9
$WORLDVIEW
 70
     1
  9
$SHADEDGE
 70
     3
  9
$SHADEDIF
 70
    70
  9
$TILEMODE
 70
     1
  9
$MAXACTVP
 70
    16
  9
$PINSBASE
 10
0.0
 20
0.0
 30
0.0
  9
$PLIMCHECK
 70
     0
  9
$PEXTMIN
 10
1.000000E+20
 20
1.000000E+20
 30
1.000000E+20
  9
$PEXTMAX
 10
-1.000000E+20
 20
-1.000000E+20
 30
-1.000000E+20
  9
$PLIMMIN
 10
0.0
 20
0.0
  9
$PLIMMAX
 10
12.0
 20
9.0
  9
$UNITMODE
 70
     0
  9
$VISRETAIN
 70
     0
  0
ENDSEC
  0
SECTION
  2
TABLES
  0
TABLE
  2
LTYPE
 70
    1
  0
LTYPE
  2
CONTINUOUS
 70
    64
3
Solid line
 72
    65
 73
0
 40
0.000000
  0
ENDTAB
  0
TABLE
  2
LAYER
 70
    8
  0
LAYER
  2
0
 70
    64
 62
7
  6
CONTINUOUS
  0
LAYER
  2
1
 70
    64
 62
7
  6
CONTINUOUS
  0
LAYER
  2
7
 70
    64
 62
7
  6
CONTINUOUS
  0
LAYER
  2
8
 70
    64
 62
7
  6
CONTINUOUS
  0
LAYER
  2
9
 70
    64
 62
7
  6
CONTINUOUS
  0
LAYER
  2
22
 70
    64
 62
7
  6
CONTINUOUS
  0
LAYER
  2
25
 70
    64
 62
7
  6
CONTINUOUS
  0
LAYER
  2
0
 70
    64
 62
7
  6
CONTINUOUS
  0
ENDTAB
  0
TABLE
  2
STYLE
 70
    1
  0
STYLE
  2
ROMANC
70
     0
 40
0.0
 41
1.0
 50
0.0
 71
     0
 42
0.2
  3
ROMANC
  4

  0
ENDTAB
  0
ENDSEC
  0
SECTION
  2
BLOCKS
  0
ENDSEC
  0
SECTION
  2
ENTITIES
  0
TEXT
  8
0
  6
CONTINUOUS
 40
0.100000
 10
287.008000
 20
41.338000
  1
2
  7
ROMANC
  0
TEXT
  8
0
  6
CONTINUOUS
 40
0.300000
 10
283.926000
 20
41.768000
  1
ESCALA  1:50
  7
ROMANC
  0
POLYLINE
  8
0
  6
CONTINUOUS
 66
     1
 70
     1
  0
VERTEX
  8
0
  6
CONTINUOUS
 10
281.396000
 20
44.747000
  0
VERTEX
  8
0
  6
CONTINUOUS
 10
291.896000
 20
44.747000
  0
VERTEX
  8
0
  6
CONTINUOUS
 10
291.896000
 20
29.897000
  0
VERTEX
  8
0
  6
CONTINUOUS
 10
281.396000
 20
29.897000
  0
SEQEND
  8
0
  0
TEXT
  8
0
  6
CONTINUOUS
 40
0.300000
 10
283.945000
 20
41.099000
  1
S = 103 dm
  7
ROMANC
  0
TEXT
  8
0
  6
CONTINUOUS
 40
0.300000
 10
283.922000
 20
40.529000
  1
P = 41 dm
  7
ROMANC
  0
TEXT
  8
0
  6
CONTINUOUS
 40
0.300000
 10
283.926000
 20
42.381000
  1
TIPUS   NT103A
  7
ROMANC
  0
ARC
  8
1
  6
CONTINUOUS
 10
286.498917
 20
36.997819
 40
0.385000
 50
0.012114
 51
180.000000
  0
ARC
  8
1
  6
CONTINUOUS
 10
286.498917
 20
36.997819
 40
0.395000
 50
0.012114
 51
180.000000
  0
POLYLINE
  8
1
  6
CONTINUOUS
 66
     1
 70
     0
  0
VERTEX
  8
1
  6
CONTINUOUS
 10
286.113917
 20
36.997819
 42
0.009889
  0
VERTEX
  8
1
  6
CONTINUOUS
 10
286.117743
 20
36.802558
 42
0.010470
  0
VERTEX
  8
1
  6
CONTINUOUS
 10
286.129512
 20
36.607621
 42
0.010852
  0
VERTEX
  8
1
  6
CONTINUOUS
 10
286.148002
 20
36.427773
 42
0.012980
  0
VERTEX
  8
1
  6
CONTINUOUS
 10
286.175034
 20
36.249034
 42
0.013990
  0
VERTEX
  8
1
  6
CONTINUOUS
 10
286.205949
 20
36.098837
 42
0.019417
  0
VERTEX
  8
1
  6
CONTINUOUS
 10
286.246795
 20
35.951108
 42
0.021906
  0
VERTEX
  8
1
  6
CONTINUOUS
 10
286.286662
 20
35.841700
 42
0.037162
  0
VERTEX
  8
1
  6
CONTINUOUS
 10
286.338981
 20
35.737981
 42
0.045153
  0
VERTEX
  8
1
  6
CONTINUOUS
 10
286.384512
 20
35.674902
 42
0.091409
  0
VERTEX
  8
1
  6
CONTINUOUS
 10
286.444124
 20
35.626917
 42
0.118241
  0
VERTEX
  8
1
  6
CONTINUOUS
 10
286.498915
 20
35.614331
 42
0.118244
  0
VERTEX
  8
1
  6
CONTINUOUS
 10
286.553706
 20
35.626916
 42
0.091412
  0
VERTEX
  8
1
  6
CONTINUOUS
 10
286.613318
 20
35.674898
 42
0.045154
  0
VERTEX
  8
1
  6
CONTINUOUS
 10
286.658849
 20
35.737976
 42
0.037163
  0
VERTEX
  8
1
  6
CONTINUOUS
 10
286.711168
 20
35.841693
 42
0.021907
  0
VERTEX
  8
1
  6
CONTINUOUS
 10
286.751036
 20
35.951100
 42
0.019418
  0
VERTEX
  8
1
  6
CONTINUOUS
 10
286.791882
 20
36.098828
 42
0.013990
  0
VERTEX
  8
1
  6
CONTINUOUS
 10
286.822798
 20
36.249023
 42
0.012981
  0
VERTEX
  8
1
  6
CONTINUOUS
 10
286.849829
 20
36.427762
 42
0.010852
  0
VERTEX
  8
1
  6
CONTINUOUS
 10
286.868321
 20
36.607609
 42
0.010470
  0
VERTEX
  8
1
  6
CONTINUOUS
 10
286.880090
 20
36.802546
 42
0.009889
  0
VERTEX
  8
1
  6
CONTINUOUS
 10
286.883917
 20
36.997807
  0
SEQEND
  8
0
  0
POLYLINE
  8
1
  6
CONTINUOUS
 66
     1
 70
     0
  0
VERTEX
  8
1
  6
CONTINUOUS
 10
286.103917
 20
36.997819
 42
0.010073
  0
VERTEX
  8
1
  6
CONTINUOUS
 10
286.107843
 20
36.801142
 42
0.010663
  0
VERTEX
  8
1
  6
CONTINUOUS
 10
286.119917
 20
36.604804
 42
0.011051
  0
VERTEX
  8
1
  6
CONTINUOUS
 10
286.138891
 20
36.423636
 42
0.013209
  0
VERTEX
  8
1
  6
CONTINUOUS
 10
286.166621
 20
36.243627
 42
0.014233
  0
VERTEX
  8
1
  6
CONTINUOUS
 10
286.198352
 20
36.092303
 42
0.019720
  0
VERTEX
  8
1
  6
CONTINUOUS
 10
286.240246
 20
35.943551
 42
0.022239
  0
VERTEX
  8
1
  6
CONTINUOUS
 10
286.281193
 20
35.833267
 42
0.037533
  0
VERTEX
  8
1
  6
CONTINUOUS
 10
286.334827
 20
35.728885
 42
0.045559
  0
VERTEX
  8
1
  6
CONTINUOUS
 10
286.381679
 20
35.665237
 42
0.090806
  0
VERTEX
  8
1
  6
CONTINUOUS
 10
286.442701
 20
35.617019
 42
0.116419
  0
VERTEX
  8
1
  6
CONTINUOUS
 10
286.498915
 20
35.604293
 42
0.116421
  0
VERTEX
  8
1
  6
CONTINUOUS
 10
286.555129
 20
35.617017
 42
0.090808
  0
VERTEX
  8
1
  6
CONTINUOUS
 10
286.616150
 20
35.665234
 42
0.045560
  0
VERTEX
  8
1
  6
CONTINUOUS
 10
286.663004
 20
35.728879
 42
0.037534
  0
VERTEX
  8
1
  6
CONTINUOUS
 10
286.716638
 20
35.833260
 42
0.022239
  0
VERTEX
  8
1
  6
CONTINUOUS
 10
286.757585
 20
35.943543
 42
0.019721
  0
VERTEX
  8
1
  6
CONTINUOUS
 10
286.799479
 20
36.092293
 42
0.014233
  0
VERTEX
  8
1
  6
CONTINUOUS
 10
286.831210
 20
36.243617
 42
0.013209
  0
VERTEX
  8
1
  6
CONTINUOUS
 10
286.858941
 20
36.423625
 42
0.011051
  0
VERTEX
  8
1
  6
CONTINUOUS
 10
286.877915
 20
36.604791
 42
0.010663
  0
VERTEX
  8
1
  6
CONTINUOUS
 10
286.889990
 20
36.801130
 42
0.010073
  0
VERTEX
  8
1
  6
CONTINUOUS
 10
286.893917
 20
36.997807
  0
SEQEND
  8
0
  0
ARC
  8
1
  6
CONTINUOUS
 10
286.498917
 20
36.997819
 40
0.375000
 50
0.012114
 51
180.000000
  0
TEXT
  8
1
  6
CONTINUOUS
 40
0.075000
 10
286.362000
 20
37.752000
  1
0.75
  7
ROMANC
  0
LINE
  8
1
  6
CONTINUOUS
 10
286.324000
 20
37.789000
 11
286.124000
 21
37.789000
  0
LINE
  8
1
  6
CONTINUOUS
 10
286.673000
 20
37.789000
 11
286.874000
 21
37.789000
  0
LINE
  8
1
  6
CONTINUOUS
 10
286.086000
 20
37.770000
 11
286.162000
 21
37.808000
  0
LINE
  8
1
  6
CONTINUOUS
 10
286.912000
 20
37.808000
 11
286.836000
 21
37.770000
  0
LINE
  8
1
  6
CONTINUOUS
 10
286.124000
 20
37.036000
 11
286.124000
 21
37.827000
  0
LINE
  8
1
  6
CONTINUOUS
 10
286.874000
 20
37.036000
 11
286.874000
 21
37.827000
  0
POLYLINE
  8
1
  6
CONTINUOUS
 66
     1
 70
     0
  0
VERTEX
  8
1
  6
CONTINUOUS
 10
286.123917
 20
36.997819
 42
0.009702
  0
VERTEX
  8
1
  6
CONTINUOUS
 10
286.127643
 20
36.803974
 42
0.010274
  0
VERTEX
  8
1
  6
CONTINUOUS
 10
286.139107
 20
36.610438
 42
0.010650
  0
VERTEX
  8
1
  6
CONTINUOUS
 10
286.157114
 20
36.431909
 42
0.012747
  0
VERTEX
  8
1
  6
CONTINUOUS
 10
286.183446
 20
36.254440
 42
0.013742
  0
VERTEX
  8
1
  6
CONTINUOUS
 10
286.213548
 20
36.105371
 42
0.019107
  0
VERTEX
  8
1
  6
CONTINUOUS
 10
286.253343
 20
35.958666
 42
0.021565
  0
VERTEX
  8
1
  6
CONTINUOUS
 10
286.292134
 20
35.850133
 42
0.036772
  0
VERTEX
  8
1
  6
CONTINUOUS
 10
286.343135
 20
35.747077
 42
0.044720
  0
VERTEX
  8
1
  6
CONTINUOUS
 10
286.387346
 20
35.684569
 42
0.092007
  0
VERTEX
  8
1
  6
CONTINUOUS
 10
286.445547
 20
35.636816
 42
0.120144
  0
VERTEX
  8
1
  6
CONTINUOUS
 10
286.498915
 20
35.624371
 42
0.120147
  0
VERTEX
  8
1
  6
CONTINUOUS
 10
286.552283
 20
35.636814
 42
0.092010
  0
VERTEX
  8
1
  6
CONTINUOUS
 10
286.610484
 20
35.684565
 42
0.044721
  0
VERTEX
  8
1
  6
CONTINUOUS
 10
286.654695
 20
35.747072
 42
0.036773
  0
VERTEX
  8
1
  6
CONTINUOUS
 10
286.705697
 20
35.850126
 42
0.021565
  0
VERTEX
  8
1
  6
CONTINUOUS
 10
286.744488
 20
35.958658
 42
0.019108
  0
VERTEX
  8
1
  6
CONTINUOUS
 10
286.784283
 20
36.105362
 42
0.013742
  0
VERTEX
  8
1
  6
CONTINUOUS
 10
286.814385
 20
36.254430
 42
0.012748
  0
VERTEX
  8
1
  6
CONTINUOUS
 10
286.840718
 20
36.431898
 42
0.010650
  0
VERTEX
  8
1
  6
CONTINUOUS
 10
286.858726
 20
36.610426
 42
0.010274
  0
VERTEX
  8
1
  6
CONTINUOUS
 10
286.870189
 20
36.803962
 42
0.009702
  0
VERTEX
  8
1
  6
CONTINUOUS
 10
286.873917
 20
36.997807
  0
SEQEND
  8
0
  0
TEXT
  8
1
  6
CONTINUOUS
 40
0.075000
 10
287.352000
 20
36.362000
  1
1.75
 50
90.000000
  7
ROMANC
  0
LINE
  8
1
  6
CONTINUOUS
 10
287.314000
 20
36.673000
 11
287.314000
 21
37.373000
  0
LINE
  8
1
  6
CONTINUOUS
 10
287.314000
 20
36.324000
 11
287.314000
 21
35.623000
  0
LINE
  8
1
  6
CONTINUOUS
 10
287.295000
 20
37.410000
 11
287.333000
 21
37.336000
  0
LINE
  8
1
  6
CONTINUOUS
 10
287.333000
 20
35.586000
 11
287.295000
 21
35.660000
  0
LINE
  8
1
  6
CONTINUOUS
 10
286.537000
 20
37.373000
 11
287.352000
 21
37.373000
  0
LINE
  8
1
  6
CONTINUOUS
 10
286.537000
 20
35.623000
 11
287.352000
 21
35.623000
  0
ENDSEC
  0
EOF
