  0
SECTION
  2
HEADER
  9
$ACADVER
  1
AC1009
  9
$INSBASE
 10
0.0
 20
0.0
 30
0.0
  9
$EXTMIN
 10
318.848696
 20
29.863623
 30
0.0
  9
$EXTMAX
 10
329.348696
 20
44.713623
 30
0.0
  9
$LIMMIN
 10
0.0
 20
0.0
  9
$LIMMAX
 10
410.0
 20
287.0
  9
$ORTHOMODE
 70
     1
  9
$REGENMODE
 70
     1
  9
$FILLMODE
 70
     1
  9
$QTEXTMODE
 70
     0
  9
$MIRRTEXT
 70
     1
  9
$DRAGMODE
 70
     2
  9
$LTSCALE
 40
25.0
  9
$OSMODE
 70
     0
  9
$ATTMODE
 70
     1
  9
$TEXTSIZE
 40
0.1
  9
$TRACEWID
 40
1.0
  9
$TEXTSTYLE
  7
ROMANC
  9
$CLAYER
  8
0
  9
$CELTYPE
  6
BYLAYER
  9
$CECOLOR
 62
   256
  9
$DIMSCALE
 40
1.5
  9
$DIMASZ
 40
0.1
  9
$DIMEXO
 40
0.01
  9
$DIMDLI
 40
7.0
  9
$DIMRND
 40
0.0
  9
$DIMDLE
 40
0.0
  9
$DIMEXE
 40
0.01
  9
$DIMTP
 40
0.0
  9
$DIMTM
 40
0.0
  9
$DIMTXT
 40
0.05
  9
$DIMCEN
 40
0.0
  9
$DIMTSZ
 40
0.0
  9
$DIMTOL
 70
     0
  9
$DIMLIM
 70
     0
  9
$DIMTIH
 70
     0
  9
$DIMTOH
 70
     0
  9
$DIMSE1
 70
     0
  9
$DIMSE2
 70
     0
  9
$DIMTAD
 70
     1
  9
$DIMZIN
 70
     0
  9
$DIMBLK
  1

  9
$DIMASO
 70
     1
  9
$DIMSHO
 70
     0
  9
$DIMPOST
  1

  9
$DIMAPOST
  1

  9
$DIMALT
 70
     0
  9
$DIMALTD
 70
     2
  9
$DIMALTF
 40
25.4
  9
$DIMLFAC
 40
1.0
  9
$DIMTOFL
 70
     1
  9
$DIMTVP
 40
0.0
  9
$DIMTIX
 70
     1
  9
$DIMSOXD
 70
     0
  9
$DIMSAH
 70
     0
  9
$DIMBLK1
  1

  9
$DIMBLK2
  1

  9
$DIMSTYLE
  2
MERITXELL
  9
$DIMCLRD
 70
     0
  9
$DIMCLRE
 70
     0
  9
$DIMCLRT
 70
     0
  9
$DIMTFAC
 40
70.0
  9
$DIMGAP
 40
0.025
  9
$LUNITS
 70
     2
  9
$LUPREC
 70
     2
  9
$SKETCHINC
 40
1.0
  9
$FILLETRAD
 40
0.0
  9
$AUNITS
 70
     0
  9
$AUPREC
 70
     0
  9
$MENU
  1
acad
  9
$ELEVATION
 40
0.0
  9
$PELEVATION
 40
0.0
  9
$THICKNESS
 40
0.0
  9
$LIMCHECK
 70
     0
  9
$BLIPMODE
 70
     0
  9
$CHAMFERA
 40
0.0
  9
$CHAMFERB
 40
0.0
  9
$SKPOLY
 70
     0
  9
$TDCREATE
 40
2450927.46195
  9
$TDUPDATE
 40
2451145.562418
  9
$TDINDWG
 40
0.121389
  9
$TDUSRTIMER
 40
0.121389
  9
$USRTIMER
 70
     1
  9
$ANGBASE
 50
0.0
  9
$ANGDIR
 70
     0
  9
$PDMODE
 70
     0
  9
$PDSIZE
 40
0.0
  9
$PLINEWID
 40
0.0
  9
$COORDS
 70
     2
  9
$SPLFRAME
 70
     0
  9
$SPLINETYPE
 70
     6
  9
$SPLINESEGS
 70
     8
  9
$ATTDIA
 70
     0
  9
$ATTREQ
 70
     1
  9
$HANDLING
 70
     1
  9
$HANDSEED
  5
44D
  9
$SURFTAB1
 70
     6
  9
$SURFTAB2
 70
     6
  9
$SURFTYPE
 70
     6
  9
$SURFU
 70
     6
  9
$SURFV
 70
     6
  9
$UCSNAME
  2

  9
$UCSORG
 10
0.0
 20
0.0
 30
0.0
  9
$UCSXDIR
 10
1.0
 20
0.0
 30
0.0
  9
$UCSYDIR
 10
0.0
 20
1.0
 30
0.0
  9
$PUCSNAME
  2

  9
$PUCSORG
 10
0.0
 20
0.0
 30
0.0
  9
$PUCSXDIR
 10
1.0
 20
0.0
 30
0.0
  9
$PUCSYDIR
 10
0.0
 20
1.0
 30
0.0
  9
$USERI1
 70
     0
  9
$USERI2
 70
     0
  9
$USERI3
 70
     0
  9
$USERI4
 70
     0
  9
$USERI5
 70
     0
  9
$USERR1
 40
0.0
  9
$USERR2
 40
0.0
  9
$USERR3
 40
0.0
  9
$USERR4
 40
0.0
  9
$USERR5
 40
0.0
  9
$WORLDVIEW
 70
     1
  9
$SHADEDGE
 70
     3
  9
$SHADEDIF
 70
    70
  9
$TILEMODE
 70
     1
  9
$MAXACTVP
 70
    16
  9
$PLIMCHECK
 70
     0
  9
$PEXTMIN
 10
1.000000E+020
 20
1.000000E+020
 30
1.000000E+020
  9
$PEXTMAX
 10
-1.000000E+020
 20
-1.000000E+020
 30
-1.000000E+020
  9
$PLIMMIN
 10
0.0
 20
0.0
  9
$PLIMMAX
 10
12.0
 20
9.0
  9
$UNITMODE
 70
     0
  9
$VISRETAIN
 70
     0
  9
$PLINEGEN
 70
     0
  9
$PSLTSCALE
 70
     0
  0
ENDSEC
  0
SECTION
  2
TABLES
  0
TABLE
  2
VPORT
 70
     2
  0
VPORT
  2
*ACTIVE
 70
     0
 10
0.0
 20
0.0
 11
1.0
 21
1.0
 12
324.100572
 22
37.303979
 13
0.0
 23
0.0
 14
1.0
 24
1.0
 15
10.0
 25
10.0
 16
0.0
 26
0.0
 36
1.0
 17
0.0
 27
0.0
 37
0.0
 40
15.05925
 41
1.732628
 42
50.0
 43
0.0
 44
0.0
 50
0.0
 51
0.0
 71
     0
 72
   100
 73
     1
 74
     0
 75
     0
 76
     0
 77
     0
 78
     1
  0
ENDTAB
  0
TABLE
  2
LTYPE
 70
     1
  0
LTYPE
  2
CONTINUOUS
 70
     0
  3
Solid line
 72
    65
 73
     0
 40
0.0
  0
ENDTAB
  0
TABLE
  2
LAYER
 70
     2
  0
LAYER
  2
0
 70
     0
 62
     7
  6
CONTINUOUS
  0
LAYER
  2
DEFPOINTS
 70
     0
 62
     7
  6
CONTINUOUS
  0
ENDTAB
  0
TABLE
  2
STYLE
 70
     2
  0
STYLE
  2
STANDARD
 70
     0
 40
0.0
 41
1.0
 50
0.0
 71
     0
 42
0.1
  3
txt
  4

  0
STYLE
  2
ROMANC
 70
     0
 40
0.0
 41
1.0
 50
0.0
 71
     0
 42
0.1
  3
romanc
  4

  0
ENDTAB
  0
TABLE
  2
VIEW
 70
     0
  0
ENDTAB
  0
TABLE
  2
UCS
 70
     0
  0
ENDTAB
  0
TABLE
  2
APPID
 70
     1
  0
APPID
  2
ACAD
 70
     0
  0
ENDTAB
  0
TABLE
  2
DIMSTYLE
 70
     1
  0
DIMSTYLE
  2
MERITXELL
 70
     0
  3

  4

  5

  6

  7

 40
1.5
 41
0.1
 42
0.01
 43
7.0
 44
0.01
 45
0.0
 46
0.0
 47
0.0
 48
0.0
140
0.05
141
0.1
142
0.0
143
25.4
144
1.0
145
0.0
146
70.0
147
0.09
 71
     0
 72
     0
 73
     0
 74
     0
 75
     0
 76
     0
 77
     1
 78
     0
170
     0
171
     2
172
     1
173
     0
174
     1
175
     0
176
     0
177
     0
178
     0
  0
ENDTAB
  0
ENDSEC
  0
SECTION
  2
BLOCKS
  0
BLOCK
  8
0
  2
$MODEL_SPACE
 70
     0
 10
0.0
 20
0.0
 30
0.0
  3
$MODEL_SPACE
  1

  0
ENDBLK
  5
24
  8
0
  0
BLOCK
 67
     1
  8
0
  2
$PAPER_SPACE
 70
     0
 10
0.0
 20
0.0
 30
0.0
  3
$PAPER_SPACE
  1

  0
ENDBLK
  5
22
 67
     1
  8
0
  0
BLOCK
  8
0
  2
*D0
 70
     1
 10
0.0
 20
0.0
 30
0.0
  3
*D0
  1

  0
LINE
  5
396
  8
0
  6
BYBLOCK
 62
     0
 10
323.851904
 20
35.056217
 30
0.0
 11
324.209364
 21
35.056217
 31
0.0
  0
LINE
  5
397
  8
0
  6
BYBLOCK
 62
     0
 10
323.851904
 20
34.156217
 30
0.0
 11
324.209364
 21
34.156217
 31
0.0
  0
LINE
  5
398
  8
0
  6
BYBLOCK
 62
     0
 10
324.194364
 20
34.906217
 30
0.0
 11
324.194364
 21
34.306217
 31
0.0
  0
SOLID
  5
399
  8
0
  6
BYBLOCK
 62
     0
 10
324.169364
 20
34.906217
 30
0.0
 11
324.219364
 21
34.906217
 31
0.0
 12
324.194364
 22
35.056217
 32
0.0
 13
324.194364
 23
35.056217
 33
0.0
  0
SOLID
  5
39A
  8
0
  6
BYBLOCK
 62
     0
 10
324.169364
 20
34.306217
 30
0.0
 11
324.219364
 21
34.306217
 31
0.0
 12
324.194364
 22
34.156217
 32
0.0
 13
324.194364
 23
34.156217
 33
0.0
  0
TEXT
  8
0
  40
0.075
  5
441
  62
0
  72
0
  71
0
 10
323.969
 20
34.4735
 30
0.000000
  1
0.90
  7
ROMANC
  0
POINT
  5
39C
  8
DEFPOINTS
  6
BYBLOCK
 62
     0
 10
323.836904
 20
35.056217
 30
0.0
  0
POINT
  5
39D
  8
DEFPOINTS
  6
BYBLOCK
 62
     0
 10
323.836904
 20
34.156217
 30
0.0
  0
POINT
  5
39E
  8
DEFPOINTS
  6
BYBLOCK
 62
     0
 10
324.194364
 20
34.156217
 30
0.0
  0
ENDBLK
  5
39F
  8
0
  0
BLOCK
  8
0
  2
*D1
 70
     1
 10
0.0
 20
0.0
 30
0.0
  3
*D1
  1

  0
LINE
  5
3A3
  8
0
  6
BYBLOCK
 62
     0
 10
323.451904
 20
35.456217
 30
0.0
 11
324.500106
 21
35.456217
 31
0.0
  0
LINE
  5
3A4
  8
0
  6
BYBLOCK
 62
     0
 10
323.451904
 20
33.956217
 30
0.0
 11
324.500106
 21
33.956217
 31
0.0
  0
LINE
  5
3A5
  8
0
  6
BYBLOCK
 62
     0
 10
324.485106
 20
35.306217
 30
0.0
 11
324.485106
 21
34.106217
 31
0.0
  0
SOLID
  5
3A6
  8
0
  6
BYBLOCK
 62
     0
 10
324.460106
 20
35.306217
 30
0.0
 11
324.510106
 21
35.306217
 31
0.0
 12
324.485106
 22
35.456217
 32
0.0
 13
324.485106
 23
35.456217
 33
0.0
  0
SOLID
  5
3A7
  8
0
  6
BYBLOCK
 62
     0
 10
324.460106
 20
34.106217
 30
0.0
 11
324.510106
 21
34.106217
 31
0.0
 12
324.485106
 22
33.956217
 32
0.0
 13
324.485106
 23
33.956217
 33
0.0
  0
TEXT
  8
0
  40
0.075
  5
442
  62
0
  72
0
  71
0
 10
324.260
 20
34.5735
 30
0.000000
  1
1.50
  7
ROMANC
  0
POINT
  5
3A9
  8
DEFPOINTS
  6
BYBLOCK
 62
     0
 10
323.436904
 20
35.456217
 30
0.0
  0
POINT
  5
3AA
  8
DEFPOINTS
  6
BYBLOCK
 62
     0
 10
323.436904
 20
33.956217
 30
0.0
  0
POINT
  5
3AB
  8
DEFPOINTS
  6
BYBLOCK
 62
     0
 10
324.485106
 20
33.956217
 30
0.0
  0
ENDBLK
  5
3AC
  8
0
  0
BLOCK
  8
0
  2
*D2
 70
     1
 10
0.0
 20
0.0
 30
0.0
  3
*D2
  1

  0
LINE
  5
3B0
  8
0
  6
BYBLOCK
 62
     0
 10
323.851904
 20
34.156217
 30
0.0
 11
324.209364
 21
34.156217
 31
0.0
  0
LINE
  5
3B1
  8
0
  6
BYBLOCK
 62
     0
 10
323.451904
 20
33.956217
 30
0.0
 11
324.209364
 21
33.956217
 31
0.0
  0
LINE
  5
3B2
  8
0
  6
BYBLOCK
 62
     0
 10
324.194364
 20
34.306217
 30
0.0
 11
324.194364
 21
34.456217
 31
0.0
  0
LINE
  5
3B3
  8
0
  6
BYBLOCK
 62
     0
 10
324.194364
 20
33.806217
 30
0.0
 11
324.194364
 21
33.656217
 31
0.0
  0
LINE
  5
3B4
  8
0
  6
BYBLOCK
 62
     0
 10
324.194364
 20
34.156217
 30
0.0
 11
324.194364
 21
33.956217
 31
0.0
  0
SOLID
  5
3B5
  8
0
  6
BYBLOCK
 62
     0
 10
324.169364
 20
34.306217
 30
0.0
 11
324.219364
 21
34.306217
 31
0.0
 12
324.194364
 22
34.156217
 32
0.0
 13
324.194364
 23
34.156217
 33
0.0
  0
SOLID
  5
3B6
  8
0
  6
BYBLOCK
 62
     0
 10
324.169364
 20
33.806217
 30
0.0
 11
324.219364
 21
33.806217
 31
0.0
 12
324.194364
 22
33.956217
 32
0.0
 13
324.194364
 23
33.956217
 33
0.0
  0
TEXT
  8
0
  40
0.075
  5
443
  62
0
  72
0
  71
0
 10
323.969
 20
33.9235
 30
0.000000
  1
0.20
  7
ROMANC
  0
POINT
  5
3B8
  8
DEFPOINTS
  6
BYBLOCK
 62
     0
 10
323.836904
 20
34.156217
 30
0.0
  0
POINT
  5
3B9
  8
DEFPOINTS
  6
BYBLOCK
 62
     0
 10
323.436904
 20
33.956217
 30
0.0
  0
POINT
  5
3BA
  8
DEFPOINTS
  6
BYBLOCK
 62
     0
 10
324.194364
 20
33.956217
 30
0.0
  0
ENDBLK
  5
3BB
  8
0
  0
BLOCK
  8
0
  2
*D3
 70
     1
 10
0.0
 20
0.0
 30
0.0
  3
*D3
  1

  0
LINE
  5
3BF
  8
0
  6
BYBLOCK
 62
     0
 10
323.186904
 20
35.056217
 30
0.0
 11
323.686904
 21
35.056217
 31
0.0
  0
SOLID
  5
3C0
  8
0
  6
BYBLOCK
 62
     0
 10
323.186904
 20
35.081217
 30
0.0
 11
323.186904
 21
35.031217
 31
0.0
 12
323.036904
 22
35.056217
 32
0.0
 13
323.036904
 23
35.056217
 33
0.0
  0
SOLID
  5
3C1
  8
0
  6
BYBLOCK
 62
     0
 10
323.686904
 20
35.081217
 30
0.0
 11
323.686904
 21
35.031217
 31
0.0
 12
323.836904
 22
35.056217
 32
0.0
 13
323.836904
 23
35.056217
 33
0.0
  0
TEXT
  8
0
  40
0.075
  5
444
  62
0
  72
0
  71
0
 10
323.287
 20
34.9985
 30
0.000000
  1
0.80
  7
ROMANC
  0
POINT
  5
3C3
  8
DEFPOINTS
  6
BYBLOCK
 62
     0
 10
323.036904
 20
35.056217
 30
0.0
  0
POINT
  5
3C4
  8
DEFPOINTS
  6
BYBLOCK
 62
     0
 10
323.836904
 20
35.056217
 30
0.0
  0
POINT
  5
3C5
  8
DEFPOINTS
  6
BYBLOCK
 62
     0
 10
323.836904
 20
35.056217
 30
0.0
  0
ENDBLK
  5
3C6
  8
0
  0
BLOCK
  8
0
  2
*D4
 70
     1
 10
0.0
 20
0.0
 30
0.0
  3
*D4
  1

  0
LINE
  5
3D6
  8
0
  6
BYBLOCK
 62
     0
 10
323.036904
 20
34.141217
 30
0.0
 11
323.036904
 21
33.451935
 31
0.0
  0
LINE
  5
3D7
  8
0
  6
BYBLOCK
 62
     0
 10
323.836904
 20
34.141217
 30
0.0
 11
323.836904
 21
33.451935
 31
0.0
  0
LINE
  5
3D8
  8
0
  6
BYBLOCK
 62
     0
 10
323.186904
 20
33.466935
 30
0.0
 11
323.686904
 21
33.466935
 31
0.0
  0
SOLID
  5
3D9
  8
0
  6
BYBLOCK
 62
     0
 10
323.186904
 20
33.491935
 30
0.0
 11
323.186904
 21
33.441935
 31
0.0
 12
323.036904
 22
33.466935
 32
0.0
 13
323.036904
 23
33.466935
 33
0.0
  0
SOLID
  5
3DA
  8
0
  6
BYBLOCK
 62
     0
 10
323.686904
 20
33.491935
 30
0.0
 11
323.686904
 21
33.441935
 31
0.0
 12
323.836904
 22
33.466935
 32
0.0
 13
323.836904
 23
33.466935
 33
0.0
  0
TEXT
  8
0
  40
0.075
  5
445
  62
0
  72
0
  71
0
 10
323.287
 20
33.4092
 30
0.000000
  1
0.80
  7
ROMANC
  0
POINT
  5
3DC
  8
DEFPOINTS
  6
BYBLOCK
 62
     0
 10
323.036904
 20
34.156217
 30
0.0
  0
POINT
  5
3DD
  8
DEFPOINTS
  6
BYBLOCK
 62
     0
 10
323.836904
 20
34.156217
 30
0.0
  0
POINT
  5
3DE
  8
DEFPOINTS
  6
BYBLOCK
 62
     0
 10
323.836904
 20
33.466935
 30
0.0
  0
ENDBLK
  5
3DF
  8
0
  0
BLOCK
  8
0
  2
*D5
 70
     1
 10
0.0
 20
0.0
 30
0.0
  3
*D5
  1

  0
LINE
  5
3E2
  8
0
  6
BYBLOCK
 62
     0
 10
323.236904
 20
34.141217
 30
0.0
 11
323.236904
 21
33.711866
 31
0.0
  0
LINE
  5
3E3
  8
0
  6
BYBLOCK
 62
     0
 10
323.636904
 20
34.141217
 30
0.0
 11
323.636904
 21
33.711866
 31
0.0
  0
LINE
  5
3E4
  8
0
  6
BYBLOCK
 62
     0
 10
323.386904
 20
33.726866
 30
0.0
 11
323.486904
 21
33.726866
 31
0.0
  0
SOLID
  5
3E5
  8
0
  6
BYBLOCK
 62
     0
 10
323.386904
 20
33.751866
 30
0.0
 11
323.386904
 21
33.701866
 31
0.0
 12
323.236904
 22
33.726866
 32
0.0
 13
323.236904
 23
33.726866
 33
0.0
  0
SOLID
  5
3E6
  8
0
  6
BYBLOCK
 62
     0
 10
323.486904
 20
33.751866
 30
0.0
 11
323.486904
 21
33.701866
 31
0.0
 12
323.636904
 22
33.726866
 32
0.0
 13
323.636904
 23
33.726866
 33
0.0
  0
TEXT
  8
0
  40
0.075
  5
446
  62
0
  72
0
  71
0
 10
323.287
 20
33.6691
 30
0.000000
  1
0.40
  7
ROMANC
  0
POINT
  5
3E8
  8
DEFPOINTS
  6
BYBLOCK
 62
     0
 10
323.236904
 20
34.156217
 30
0.0
  0
POINT
  5
3E9
  8
DEFPOINTS
  6
BYBLOCK
 62
     0
 10
323.636904
 20
34.156217
 30
0.0
  0
POINT
  5
3EA
  8
DEFPOINTS
  6
BYBLOCK
 62
     0
 10
323.636904
 20
33.726866
 30
0.0
  0
ENDBLK
  5
3EB
  8
0
  0
ENDSEC
  0
SECTION
  2
ENTITIES
  0
LINE
  5
27
  8
0
 10
329.348696
 20
29.863623
 30
0.0
 11
329.348696
 21
44.713623
 31
0.0
  0
LINE
  5
28
  8
0
 10
318.848696
 20
44.713623
 30
0.0
 11
318.848696
 21
29.863623
 31
0.0
  0
LINE
  5
29
  8
0
 10
318.848696
 20
29.863623
 30
0.0
 11
329.348696
 21
29.863623
 31
0.0
  0
TEXT
  5
2A
  8
0
 10
321.773149
 20
42.309482
 30
0.0
 40
0.3
  1
TIPUS   NT103
  7
ROMANC
  0
TEXT
  5
2D
  8
0
 10
321.735227
 20
40.527599
 30
0.0
 40
0.3
  1
P = 40,8 dm
  7
ROMANC
  0
TEXT
  5
2E
  8
0
 10
321.786243
 20
41.225178
 30
0.0
 40
0.3
  1
S = 103 dm
  7
ROMANC
  0
TEXT
  5
2F
  8
0
 10
321.773149
 20
41.823768
 30
0.0
 40
0.3
  1
ESCALA  1:50
  7
ROMANC
  0
TEXT
  5
30
  8
0
 10
324.904008
 20
41.531094
 30
0.0
 40
0.1
  1
2
  7
ROMANC
  0
LINE
  5
31
  8
0
 10
329.348696
 20
44.713623
 30
0.0
 11
318.848696
 21
44.713623
 31
0.0
  0
LINE
  5
3F8
  8
0
 10
323.644268
 20
34.148717
 30
0.0
 11
323.844404
 21
34.148717
 31
0.0
  0
LINE
  5
3F9
  8
0
 10
323.844404
 20
34.148717
 30
0.0
 11
323.844404
 21
35.056217
 31
0.0
  0
ARC
  5
3FA
  8
0
 10
323.436904
 20
35.056217
 30
0.0
 40
0.4075
 50
0.000024
 51
179.999976
  0
LINE
  5
3FB
  8
0
 10
323.029404
 20
35.056217
 30
0.0
 11
323.029404
 21
34.148717
 31
0.0
  0
LINE
  5
3FC
  8
0
 10
323.029404
 20
34.148717
 30
0.0
 11
323.229539
 21
34.148717
 31
0.0
  0
ARC
  5
3FD
  8
0
 10
323.436904
 20
34.156217
 30
0.0
 40
0.2075
 50
182.071383
 51
357.928617
  0
LINE
  5
3FE
  8
0
 10
323.629237
 20
34.163737
 30
0.0
 11
323.829384
 21
34.163737
 31
0.0
  0
LINE
  5
3FF
  8
0
 10
323.829384
 20
34.163737
 30
0.0
 11
323.829384
 21
35.056217
 31
0.0
  0
ARC
  5
400
  8
0
 10
323.436904
 20
35.056217
 30
0.0
 40
0.39248
 50
360.0
 51
180.0
  0
LINE
  5
401
  8
0
 10
323.044424
 20
35.056217
 30
0.0
 11
323.044424
 21
34.163737
 31
0.0
  0
LINE
  5
402
  8
0
 10
323.044424
 20
34.163737
 30
0.0
 11
323.244571
 21
34.163737
 31
0.0
  0
ARC
  5
403
  8
0
 10
323.436904
 20
34.156217
 30
0.0
 40
0.19248
 50
177.760942
 51
2.239058
  0
LINE
  5
404
  8
0
 10
323.636904
 20
34.156217
 30
0.0
 11
323.836904
 21
34.156217
 31
0.0
  0
LINE
  5
405
  8
0
 10
323.836904
 20
34.156217
 30
0.0
 11
323.836904
 21
35.056217
 31
0.0
  0
ARC
  5
406
  8
0
 10
323.436904
 20
35.056217
 30
0.0
 40
0.4
 50
360.0
 51
180.0
  0
LINE
  5
407
  8
0
 10
323.036904
 20
35.056217
 30
0.0
 11
323.036904
 21
34.156217
 31
0.0
  0
LINE
  5
408
  8
0
 10
323.036904
 20
34.156217
 30
0.0
 11
323.236904
 21
34.156217
 31
0.0
  0
ARC
  5
409
  8
0
 10
323.436904
 20
34.156217
 30
0.0
 40
0.2
 50
180.0
 51
0.0
  0
LINE
  5
40A
  8
0
  6
BYBLOCK
 62
     0
 10
323.236904
 20
34.141217
 30
0.0
 11
323.236904
 21
33.711866
 31
0.0
  0
LINE
  5
40B
  8
0
  6
BYBLOCK
 62
     0
 10
323.636904
 20
34.141217
 30
0.0
 11
323.636904
 21
33.711866
 31
0.0
  0
LINE
  5
40C
  8
0
  6
BYBLOCK
 62
     0
 10
323.386904
 20
33.726866
 30
0.0
 11
323.486904
 21
33.726866
 31
0.0
  0
SOLID
  5
40D
  8
0
  6
BYBLOCK
 62
     0
 10
323.386904
 20
33.751866
 30
0.0
 11
323.386904
 21
33.701866
 31
0.0
 12
323.236904
 22
33.726866
 32
0.0
 13
323.236904
 23
33.726866
 33
0.0
  0
SOLID
  5
40E
  8
0
  6
BYBLOCK
 62
     0
 10
323.486904
 20
33.751866
 30
0.0
 11
323.486904
 21
33.701866
 31
0.0
 12
323.636904
 22
33.726866
 32
0.0
 13
323.636904
 23
33.726866
 33
0.0
  0
TEXT
  8
0
  40
0.075
  5
447
  62
0
  72
0
  71
0
 10
323.287
 20
33.6691
 30
0.000000
  1
0.40
  7
ROMANC
  0
POINT
  5
410
  8
DEFPOINTS
  6
BYBLOCK
 62
     0
 10
323.236904
 20
34.156217
 30
0.0
  0
POINT
  5
411
  8
DEFPOINTS
  6
BYBLOCK
 62
     0
 10
323.636904
 20
34.156217
 30
0.0
  0
POINT
  5
412
  8
DEFPOINTS
  6
BYBLOCK
 62
     0
 10
323.636904
 20
33.726866
 30
0.0
  0
LINE
  5
413
  8
0
  6
BYBLOCK
 62
     0
 10
323.036904
 20
34.141217
 30
0.0
 11
323.036904
 21
33.451935
 31
0.0
  0
LINE
  5
414
  8
0
  6
BYBLOCK
 62
     0
 10
323.836904
 20
34.141217
 30
0.0
 11
323.836904
 21
33.451935
 31
0.0
  0
LINE
  5
415
  8
0
  6
BYBLOCK
 62
     0
 10
323.186904
 20
33.466935
 30
0.0
 11
323.686904
 21
33.466935
 31
0.0
  0
SOLID
  5
416
  8
0
  6
BYBLOCK
 62
     0
 10
323.186904
 20
33.491935
 30
0.0
 11
323.186904
 21
33.441935
 31
0.0
 12
323.036904
 22
33.466935
 32
0.0
 13
323.036904
 23
33.466935
 33
0.0
  0
SOLID
  5
417
  8
0
  6
BYBLOCK
 62
     0
 10
323.686904
 20
33.491935
 30
0.0
 11
323.686904
 21
33.441935
 31
0.0
 12
323.836904
 22
33.466935
 32
0.0
 13
323.836904
 23
33.466935
 33
0.0
  0
TEXT
  8
0
  40
0.075
  5
448
  62
0
  72
0
  71
0
 10
323.287
 20
33.4092
 30
0.000000
  1
0.80
  7
ROMANC
  0
POINT
  5
419
  8
DEFPOINTS
  6
BYBLOCK
 62
     0
 10
323.036904
 20
34.156217
 30
0.0
  0
POINT
  5
41A
  8
DEFPOINTS
  6
BYBLOCK
 62
     0
 10
323.836904
 20
34.156217
 30
0.0
  0
POINT
  5
41B
  8
DEFPOINTS
  6
BYBLOCK
 62
     0
 10
323.836904
 20
33.466935
 30
0.0
  0
LINE
  5
41C
  8
0
  6
BYBLOCK
 62
     0
 10
323.186904
 20
35.056217
 30
0.0
 11
323.686904
 21
35.056217
 31
0.0
  0
SOLID
  5
41D
  8
0
  6
BYBLOCK
 62
     0
 10
323.186904
 20
35.081217
 30
0.0
 11
323.186904
 21
35.031217
 31
0.0
 12
323.036904
 22
35.056217
 32
0.0
 13
323.036904
 23
35.056217
 33
0.0
  0
SOLID
  5
41E
  8
0
  6
BYBLOCK
 62
     0
 10
323.686904
 20
35.081217
 30
0.0
 11
323.686904
 21
35.031217
 31
0.0
 12
323.836904
 22
35.056217
 32
0.0
 13
323.836904
 23
35.056217
 33
0.0
  0
TEXT
  8
0
  40
0.075
  5
449
  62
0
  72
0
  71
0
 10
323.287
 20
34.9985
 30
0.000000
  1
0.80
  7
ROMANC
  0
POINT
  5
420
  8
DEFPOINTS
  6
BYBLOCK
 62
     0
 10
323.036904
 20
35.056217
 30
0.0
  0
POINT
  5
421
  8
DEFPOINTS
  6
BYBLOCK
 62
     0
 10
323.836904
 20
35.056217
 30
0.0
  0
POINT
  5
422
  8
DEFPOINTS
  6
BYBLOCK
 62
     0
 10
323.836904
 20
35.056217
 30
0.0
  0
LINE
  5
423
  8
0
  6
BYBLOCK
 62
     0
 10
323.851904
 20
34.156217
 30
0.0
 11
324.209364
 21
34.156217
 31
0.0
  0
LINE
  5
424
  8
0
  6
BYBLOCK
 62
     0
 10
323.451904
 20
33.956217
 30
0.0
 11
324.209364
 21
33.956217
 31
0.0
  0
LINE
  5
425
  8
0
  6
BYBLOCK
 62
     0
 10
324.194364
 20
34.306217
 30
0.0
 11
324.194364
 21
34.456217
 31
0.0
  0
LINE
  5
426
  8
0
  6
BYBLOCK
 62
     0
 10
324.194364
 20
33.806217
 30
0.0
 11
324.194364
 21
33.656217
 31
0.0
  0
LINE
  5
427
  8
0
  6
BYBLOCK
 62
     0
 10
324.194364
 20
34.156217
 30
0.0
 11
324.194364
 21
33.956217
 31
0.0
  0
SOLID
  5
428
  8
0
  6
BYBLOCK
 62
     0
 10
324.169364
 20
34.306217
 30
0.0
 11
324.219364
 21
34.306217
 31
0.0
 12
324.194364
 22
34.156217
 32
0.0
 13
324.194364
 23
34.156217
 33
0.0
  0
SOLID
  5
429
  8
0
  6
BYBLOCK
 62
     0
 10
324.169364
 20
33.806217
 30
0.0
 11
324.219364
 21
33.806217
 31
0.0
 12
324.194364
 22
33.956217
 32
0.0
 13
324.194364
 23
33.956217
 33
0.0
  0
TEXT
  8
0
  40
0.075
  5
44A
  62
0
  72
0
  71
0
 10
323.969
 20
33.9235
 30
0.000000
  1
0.20
  7
ROMANC
  0
POINT
  5
42B
  8
DEFPOINTS
  6
BYBLOCK
 62
     0
 10
323.836904
 20
34.156217
 30
0.0
  0
POINT
  5
42C
  8
DEFPOINTS
  6
BYBLOCK
 62
     0
 10
323.436904
 20
33.956217
 30
0.0
  0
POINT
  5
42D
  8
DEFPOINTS
  6
BYBLOCK
 62
     0
 10
324.194364
 20
33.956217
 30
0.0
  0
LINE
  5
42E
  8
0
  6
BYBLOCK
 62
     0
 10
323.451904
 20
35.456217
 30
0.0
 11
324.500106
 21
35.456217
 31
0.0
  0
LINE
  5
42F
  8
0
  6
BYBLOCK
 62
     0
 10
323.451904
 20
33.956217
 30
0.0
 11
324.500106
 21
33.956217
 31
0.0
  0
LINE
  5
430
  8
0
  6
BYBLOCK
 62
     0
 10
324.485106
 20
35.306217
 30
0.0
 11
324.485106
 21
34.106217
 31
0.0
  0
SOLID
  5
431
  8
0
  6
BYBLOCK
 62
     0
 10
324.460106
 20
35.306217
 30
0.0
 11
324.510106
 21
35.306217
 31
0.0
 12
324.485106
 22
35.456217
 32
0.0
 13
324.485106
 23
35.456217
 33
0.0
  0
SOLID
  5
432
  8
0
  6
BYBLOCK
 62
     0
 10
324.460106
 20
34.106217
 30
0.0
 11
324.510106
 21
34.106217
 31
0.0
 12
324.485106
 22
33.956217
 32
0.0
 13
324.485106
 23
33.956217
 33
0.0
  0
TEXT
  8
0
  40
0.075
  5
44B
  62
0
  72
0
  71
0
 10
324.260
 20
34.5735
 30
0.000000
  1
1.50
  7
ROMANC
  0
POINT
  5
434
  8
DEFPOINTS
  6
BYBLOCK
 62
     0
 10
323.436904
 20
35.456217
 30
0.0
  0
POINT
  5
435
  8
DEFPOINTS
  6
BYBLOCK
 62
     0
 10
323.436904
 20
33.956217
 30
0.0
  0
POINT
  5
436
  8
DEFPOINTS
  6
BYBLOCK
 62
     0
 10
324.485106
 20
33.956217
 30
0.0
  0
LINE
  5
437
  8
0
  6
BYBLOCK
 62
     0
 10
323.851904
 20
35.056217
 30
0.0
 11
324.209364
 21
35.056217
 31
0.0
  0
LINE
  5
438
  8
0
  6
BYBLOCK
 62
     0
 10
323.851904
 20
34.156217
 30
0.0
 11
324.209364
 21
34.156217
 31
0.0
  0
LINE
  5
439
  8
0
  6
BYBLOCK
 62
     0
 10
324.194364
 20
34.906217
 30
0.0
 11
324.194364
 21
34.306217
 31
0.0
  0
SOLID
  5
43A
  8
0
  6
BYBLOCK
 62
     0
 10
324.169364
 20
34.906217
 30
0.0
 11
324.219364
 21
34.906217
 31
0.0
 12
324.194364
 22
35.056217
 32
0.0
 13
324.194364
 23
35.056217
 33
0.0
  0
SOLID
  5
43B
  8
0
  6
BYBLOCK
 62
     0
 10
324.169364
 20
34.306217
 30
0.0
 11
324.219364
 21
34.306217
 31
0.0
 12
324.194364
 22
34.156217
 32
0.0
 13
324.194364
 23
34.156217
 33
0.0
  0
TEXT
  8
0
  40
0.075
  5
44C
  62
0
  72
0
  71
0
 10
323.969
 20
34.4735
 30
0.000000
  1
0.90
  7
ROMANC
  0
POINT
  5
43D
  8
DEFPOINTS
  6
BYBLOCK
 62
     0
 10
323.836904
 20
35.056217
 30
0.0
  0
POINT
  5
43E
  8
DEFPOINTS
  6
BYBLOCK
 62
     0
 10
323.836904
 20
34.156217
 30
0.0
  0
POINT
  5
43F
  8
DEFPOINTS
  6
BYBLOCK
 62
     0
 10
324.194364
 20
34.156217
 30
0.0
  0
ENDSEC
  0
EOF
