  0
SECTION
  2
HEADER
  9
$ACADVER
  1
AC1014
  9
$ACADMAINTVER
 70
     9
  9
$DWGCODEPAGE
  3
ANSI_1252
  9
$INSBASE
 10
0.0
 20
0.0
 30
0.0
  9
$EXTMIN
 10
281.3959741393196
 20
29.89674397018522
 30
-0.0029993667782833
  9
$EXTMAX
 10
283.4964453246402
 20
32.86703052795076
 30
0.0095002517694525
  9
$LIMMIN
 10
280.3959999999999
 20
28.89699999999999
  9
$LIMMAX
 10
287.724
 20
33.83699999999999
  9
$ORTHOMODE
 70
     1
  9
$REGENMODE
 70
     1
  9
$FILLMODE
 70
     1
  9
$QTEXTMODE
 70
     0
  9
$MIRRTEXT
 70
     1
  9
$DRAGMODE
 70
     2
  9
$LTSCALE
 40
1.0
  9
$OSMODE
 70
   399
  9
$ATTMODE
 70
     1
  9
$TEXTSIZE
 40
0.2
  9
$TRACEWID
 40
0.05
  9
$TEXTSTYLE
  7
STANDARD
  9
$CLAYER
  8
0
  9
$CELTYPE
  6
BYLAYER
  9
$CECOLOR
 62
   256
  9
$CELTSCALE
 40
1.0
  9
$DELOBJ
 70
     1
  9
$DISPSILH
 70
     0
  9
$DIMSCALE
 40
1.0
  9
$DIMASZ
 40
0.18
  9
$DIMEXO
 40
0.0625
  9
$DIMDLI
 40
0.38
  9
$DIMRND
 40
0.0
  9
$DIMDLE
 40
0.0
  9
$DIMEXE
 40
0.18
  9
$DIMTP
 40
0.0
  9
$DIMTM
 40
0.0
  9
$DIMTXT
 40
0.18
  9
$DIMCEN
 40
0.09
  9
$DIMTSZ
 40
0.0
  9
$DIMTOL
 70
     0
  9
$DIMLIM
 70
     0
  9
$DIMTIH
 70
     1
  9
$DIMTOH
 70
     1
  9
$DIMSE1
 70
     0
  9
$DIMSE2
 70
     0
  9
$DIMTAD
 70
     0
  9
$DIMZIN
 70
     0
  9
$DIMBLK
  1

  9
$DIMASO
 70
     1
  9
$DIMSHO
 70
     1
  9
$DIMPOST
  1

  9
$DIMAPOST
  1

  9
$DIMALT
 70
     0
  9
$DIMALTD
 70
     2
  9
$DIMALTF
 40
25.4
  9
$DIMLFAC
 40
1.0
  9
$DIMTOFL
 70
     0
  9
$DIMTVP
 40
0.0
  9
$DIMTIX
 70
     0
  9
$DIMSOXD
 70
     0
  9
$DIMSAH
 70
     0
  9
$DIMBLK1
  1

  9
$DIMBLK2
  1

  9
$DIMSTYLE
  2
STANDARD
  9
$DIMCLRD
 70
     0
  9
$DIMCLRE
 70
     0
  9
$DIMCLRT
 70
     0
  9
$DIMTFAC
 40
1.0
  9
$DIMGAP
 40
0.09
  9
$DIMJUST
 70
     0
  9
$DIMSD1
 70
     0
  9
$DIMSD2
 70
     0
  9
$DIMTOLJ
 70
     1
  9
$DIMTZIN
 70
     0
  9
$DIMALTZ
 70
     0
  9
$DIMALTTZ
 70
     0
  9
$DIMFIT
 70
     3
  9
$DIMUPT
 70
     0
  9
$DIMUNIT
 70
     2
  9
$DIMDEC
 70
     4
  9
$DIMTDEC
 70
     4
  9
$DIMALTU
 70
     2
  9
$DIMALTTD
 70
     2
  9
$DIMTXSTY
  7
STANDARD
  9
$DIMAUNIT
 70
     0
  9
$LUNITS
 70
     2
  9
$LUPREC
 70
     4
  9
$SKETCHINC
 40
0.1
  9
$FILLETRAD
 40
0.0
  9
$AUNITS
 70
     0
  9
$AUPREC
 70
     0
  9
$MENU
  1
acad
  9
$ELEVATION
 40
0.0
  9
$PELEVATION
 40
0.0
  9
$THICKNESS
 40
0.0
  9
$LIMCHECK
 70
     0
  9
$BLIPMODE
 70
     0
  9
$CHAMFERA
 40
0.0
  9
$CHAMFERB
 40
0.0
  9
$CHAMFERC
 40
0.0
  9
$CHAMFERD
 40
0.0
  9
$SKPOLY
 70
     0
  9
$TDCREATE
 40
2448315.373408102
  9
$TDUPDATE
 40
2453089.385768611
  9
$TDINDWG
 40
0.0112145602
  9
$TDUSRTIMER
 40
0.0112143750
  9
$USRTIMER
 70
     1
  9
$ANGBASE
 50
0.0
  9
$ANGDIR
 70
     0
  9
$PDMODE
 70
     0
  9
$PDSIZE
 40
0.0
  9
$PLINEWID
 40
0.0
  9
$COORDS
 70
     1
  9
$SPLFRAME
 70
     0
  9
$SPLINETYPE
 70
     6
  9
$SPLINESEGS
 70
     8
  9
$ATTDIA
 70
     0
  9
$ATTREQ
 70
     1
  9
$HANDLING
 70
 22529
  9
$HANDSEED
  5
E4
  9
$SURFTAB1
 70
     6
  9
$SURFTAB2
 70
     6
  9
$SURFTYPE
 70
     6
  9
$SURFU
 70
     6
  9
$SURFV
 70
     6
  9
$UCSNAME
  2

  9
$UCSORG
 10
0.0
 20
0.0
 30
0.0
  9
$UCSXDIR
 10
1.0
 20
0.0
 30
0.0
  9
$UCSYDIR
 10
0.0
 20
1.0
 30
0.0
  9
$PUCSNAME
  2

  9
$PUCSORG
 10
0.0
 20
0.0
 30
0.0
  9
$PUCSXDIR
 10
1.0
 20
0.0
 30
0.0
  9
$PUCSYDIR
 10
0.0
 20
1.0
 30
0.0
  9
$USERI1
 70
     0
  9
$USERI2
 70
     0
  9
$USERI3
 70
     0
  9
$USERI4
 70
     0
  9
$USERI5
 70
     0
  9
$USERR1
 40
0.0
  9
$USERR2
 40
0.0
  9
$USERR3
 40
0.0
  9
$USERR4
 40
0.0
  9
$USERR5
 40
0.0
  9
$WORLDVIEW
 70
     1
  9
$SHADEDGE
 70
     3
  9
$SHADEDIF
 70
    70
  9
$TILEMODE
 70
     1
  9
$MAXACTVP
 70
    16
  9
$PINSBASE
 10
0.0
 20
0.0
 30
0.0
  9
$PLIMCHECK
 70
     0
  9
$PEXTMIN
 10
1.000000000000000E+20
 20
1.000000000000000E+20
 30
1.000000000000000E+20
  9
$PEXTMAX
 10
-1.000000000000000E+20
 20
-1.000000000000000E+20
 30
-1.000000000000000E+20
  9
$PLIMMIN
 10
0.0
 20
0.0
  9
$PLIMMAX
 10
12.0
 20
9.0
  9
$UNITMODE
 70
     0
  9
$VISRETAIN
 70
     0
  9
$PLINEGEN
 70
     0
  9
$PSLTSCALE
 70
     1
  9
$TREEDEPTH
 70
  3020
  9
$PICKSTYLE
 70
     1
  9
$CMLSTYLE
  2
STANDARD
  9
$CMLJUST
 70
     0
  9
$CMLSCALE
 40
1.0
  9
$PROXYGRAPHICS
 70
     1
  9
$MEASUREMENT
 70
     0
  0
ENDSEC
  0
SECTION
  2
CLASSES
  0
CLASS
  1
ACDBDICTIONARYWDFLT
  2
AcDbDictionaryWithDefault
  3
AutoCAD 2000
 90
        0
280
     0
281
     0
  0
CLASS
  1
ACDBPLACEHOLDER
  2
AcDbPlaceHolder
  3
AutoCAD 2000
 90
        0
280
     0
281
     0
  0
CLASS
  1
LAYOUT
  2
AcDbLayout
  3
AutoCAD 2000
 90
        0
280
     0
281
     0
  0
CLASS
  1
DICTIONARYVAR
  2
AcDbDictionaryVar
  3
AutoCAD 2000
 90
        0
280
     0
281
     0
  0
CLASS
  1
LONG_TRANSACTION
  2
AcDbLongTransaction
  3
AutoCAD 2000
 90
        0
280
     0
281
     0
  0
CLASS
  1
LWPOLYLINE
  2
AcDbPolyline
  3
AutoCAD 2000
 90
        0
280
     0
281
     1
  0
CLASS
  1
HATCH
  2
AcDbHatch
  3
AutoCAD 2000
 90
        0
280
     0
281
     1
  0
CLASS
  1
XRECORD
  2
AcDbXrecord
  3
AutoCAD 2000
 90
        0
280
     0
281
     0
  0
ENDSEC
  0
SECTION
  2
TABLES
  0
TABLE
  2
VPORT
  5
8
330
0
100
AcDbSymbolTable
 70
     3
  0
VPORT
  5
BF
330
8
100
AcDbSymbolTableRecord
100
AcDbViewportTableRecord
  2
*ACTIVE
 70
     0
 10
0.0
 20
0.0
 11
1.0
 21
1.0
 12
282.4168617999174
 22
31.16608845719619
 13
0.0
 23
0.0
 14
1.0
 24
1.0
 15
0.0
 25
0.0
 16
0.0
 26
0.0
 36
1.0
 17
0.0
 27
0.0
 37
0.0
 40
0.2253946035334965
 41
1.175949367088607
 42
50.0
 43
0.0
 44
0.0
 50
0.0
 51
0.0
 71
     0
 72
   100
 73
     1
 74
     1
 75
     0
 76
     0
 77
     0
 78
     0
  0
ENDTAB
  0
TABLE
  2
LTYPE
  5
5
330
0
100
AcDbSymbolTable
 70
     1
  0
LTYPE
  5
12
330
5
100
AcDbSymbolTableRecord
100
AcDbLinetypeTableRecord
  2
BYBLOCK
 70
     0
  3

 72
    65
 73
     0
 40
0.0
  0
LTYPE
  5
13
330
5
100
AcDbSymbolTableRecord
100
AcDbLinetypeTableRecord
  2
BYLAYER
 70
     0
  3

 72
    65
 73
     0
 40
0.0
  0
LTYPE
  5
14
330
5
100
AcDbSymbolTableRecord
100
AcDbLinetypeTableRecord
  2
CONTINUOUS
 70
     0
  3
Solid line
 72
    65
 73
     0
 40
0.0
  0
ENDTAB
  0
TABLE
  2
LAYER
  5
2
330
0
100
AcDbSymbolTable
 70
     9
  0
LAYER
  5
E
330
2
100
AcDbSymbolTableRecord
100
AcDbLayerTableRecord
  2
0
 70
     0
 62
     7
  6
CONTINUOUS
  0
LAYER
  5
1F
330
2
100
AcDbSymbolTableRecord
100
AcDbLayerTableRecord
  2
1
 70
     0
 62
     7
  6
CONTINUOUS
  0
LAYER
  5
20
330
2
100
AcDbSymbolTableRecord
100
AcDbLayerTableRecord
  2
7
 70
     0
 62
     7
  6
CONTINUOUS
  0
LAYER
  5
21
330
2
100
AcDbSymbolTableRecord
100
AcDbLayerTableRecord
  2
8
 70
     0
 62
     7
  6
CONTINUOUS
  0
LAYER
  5
22
330
2
100
AcDbSymbolTableRecord
100
AcDbLayerTableRecord
  2
9
 70
     0
 62
     7
  6
CONTINUOUS
  0
LAYER
  5
23
330
2
100
AcDbSymbolTableRecord
100
AcDbLayerTableRecord
  2
22
 70
     0
 62
     7
  6
CONTINUOUS
  0
LAYER
  5
24
330
2
100
AcDbSymbolTableRecord
100
AcDbLayerTableRecord
  2
25
 70
     0
 62
     7
  6
CONTINUOUS
  0
LAYER
  5
66
330
2
100
AcDbSymbolTableRecord
100
AcDbLayerTableRecord
  2
DEFPOINTS
 70
     0
 62
     7
  6
CONTINUOUS
  0
LAYER
  5
BA
330
2
100
AcDbSymbolTableRecord
100
AcDbLayerTableRecord
  2
NO_PRINT
 70
     0
 62
     7
  6
CONTINUOUS
  0
ENDTAB
  0
TABLE
  2
STYLE
  5
3
330
0
100
AcDbSymbolTable
 70
     2
  0
STYLE
  5
F
330
3
100
AcDbSymbolTableRecord
100
AcDbTextStyleTableRecord
  2
STANDARD
 70
     0
 40
0.0
 41
1.0
 50
0.0
 71
     0
 42
0.2
  3
txt
  4

  0
STYLE
  5
25
330
3
100
AcDbSymbolTableRecord
100
AcDbTextStyleTableRecord
  2
ROMANC
 70
     0
 40
0.0
 41
1.0
 50
0.0
 71
     0
 42
0.2
  3
ROMANC
  4

  0
ENDTAB
  0
TABLE
  2
VIEW
  5
6
330
0
100
AcDbSymbolTable
 70
     0
  0
ENDTAB
  0
TABLE
  2
UCS
  5
7
330
0
100
AcDbSymbolTable
 70
     0
  0
ENDTAB
  0
TABLE
  2
APPID
  5
9
330
0
100
AcDbSymbolTable
 70
     1
  0
APPID
  5
10
330
9
100
AcDbSymbolTableRecord
100
AcDbRegAppTableRecord
  2
ACAD
 70
     0
  0
ENDTAB
  0
TABLE
  2
DIMSTYLE
  5
A
330
0
100
AcDbSymbolTable
 70
     1
  0
DIMSTYLE
105
44
330
A
100
AcDbSymbolTableRecord
100
AcDbDimStyleTableRecord
  2
STANDARD
 70
     0
  3

  4

  5

  6

  7

 40
1.0
 41
0.18
 42
0.0625
 43
0.38
 44
0.18
 45
0.0
 46
0.0
 47
0.0
 48
0.0
140
0.18
141
0.09
142
0.0
143
25.4
144
1.0
145
0.0
146
1.0
147
0.09
 71
     0
 72
     0
 73
     1
 74
     1
 75
     0
 76
     0
 77
     0
 78
     0
170
     0
171
     2
172
     0
173
     0
174
     0
175
     0
176
     0
177
     0
178
     0
270
     2
271
     4
272
     4
273
     2
274
     2
340
F
275
     0
280
     0
281
     0
282
     0
283
     1
284
     0
285
     0
286
     0
287
     3
288
     0
  0
ENDTAB
  0
TABLE
  2
BLOCK_RECORD
  5
1
330
0
100
AcDbSymbolTable
 70
     4
  0
BLOCK_RECORD
  5
18
102
{ACAD_XDICTIONARY
360
E2
102
}
330
1
100
AcDbSymbolTableRecord
100
AcDbBlockTableRecord
  2
*MODEL_SPACE
  0
BLOCK_RECORD
  5
15
102
{ACAD_XDICTIONARY
360
E0
102
}
330
1
100
AcDbSymbolTableRecord
100
AcDbBlockTableRecord
  2
*PAPER_SPACE
  0
BLOCK_RECORD
  5
59
330
1
100
AcDbSymbolTableRecord
100
AcDbBlockTableRecord
  2
*D0
  0
BLOCK_RECORD
  5
71
330
1
100
AcDbSymbolTableRecord
100
AcDbBlockTableRecord
  2
*D2
  0
BLOCK_RECORD
  5
89
330
1
100
AcDbSymbolTableRecord
100
AcDbBlockTableRecord
  2
*D3
  0
ENDTAB
  0
ENDSEC
  0
SECTION
  2
BLOCKS
  0
BLOCK
  5
19
330
18
100
AcDbEntity
  8
0
100
AcDbBlockBegin
  2
*MODEL_SPACE
 70
     0
 10
0.0
 20
0.0
 30
0.0
  3
*MODEL_SPACE
  1

  0
ENDBLK
  5
1A
330
18
100
AcDbEntity
  8
0
100
AcDbBlockEnd
  0
BLOCK
  5
16
330
15
100
AcDbEntity
 67
     1
  8
0
100
AcDbBlockBegin
  2
*PAPER_SPACE
 70
     0
 10
0.0
 20
0.0
 30
0.0
  3
*PAPER_SPACE
  1

  0
ENDBLK
  5
17
330
15
100
AcDbEntity
 67
     1
  8
0
100
AcDbBlockEnd
  0
BLOCK
  5
64
330
59
100
AcDbEntity
  8
0
100
AcDbBlockBegin
  2
*D0
 70
     1
 10
0.0
 20
0.0
 30
0.0
  3
*D0
  1

  0
LINE
  5
5A
330
59
100
AcDbEntity
  8
0
 62
     0
100
AcDbLine
 10
282.406499064284
 20
31.3483598411907
 30
0.0
 11
282.406499064284
 21
31.6670019519914
 31
0.0
  0
LINE
  5
5B
330
59
100
AcDbEntity
  8
0
 62
     0
100
AcDbLine
 10
282.5064990642841
 20
31.3483598411907
 30
0.0
 11
282.5064990642841
 21
31.6670019519914
 31
0.0
  0
LINE
  5
5C
330
59
100
AcDbEntity
  8
0
 62
     0
100
AcDbLine
 10
282.356499064284
 20
31.4870019519914
 30
0.0
 11
282.306499064284
 21
31.4870019519914
 31
0.0
  0
LINE
  5
5D
330
59
100
AcDbEntity
  8
0
 62
     0
100
AcDbLine
 10
282.5564990642841
 20
31.4870019519914
 30
0.0
 11
282.6064990642841
 21
31.4870019519914
 31
0.0
  0
SOLID
  5
5E
330
59
100
AcDbEntity
  8
0
 62
     0
100
AcDbTrace
 10
282.356499064284
 20
31.49533528532473
 30
0.0
 11
282.356499064284
 21
31.47866861865807
 31
0.0
 12
282.406499064284
 22
31.4870019519914
 32
0.0
 13
282.406499064284
 23
31.4870019519914
 33
0.0
  0
SOLID
  5
5F
330
59
100
AcDbEntity
  8
0
 62
     0
100
AcDbTrace
 10
282.5564990642841
 20
31.49533528532473
 30
0.0
 11
282.5564990642841
 21
31.47866861865807
 31
0.0
 12
282.5064990642841
 22
31.4870019519914
 32
0.0
 13
282.5064990642841
 23
31.4870019519914
 33
0.0
  0
MTEXT
  5
60
330
59
100
AcDbEntity
  8
0
 62
     0
100
AcDbMText
 10
282.7964990642841
 20
31.4870019519914
 30
0.0
 40
0.05
 41
0.0
 71
     5
 72
     1
  1
\A1;0.1000
1001
ACAD
1000
MTEXTBEGIN
1070
    73
1070
     1
1070
    44
1040
1.0
1070
    74
1070
     0
1000
MTEXTEND
  0
POINT
  5
61
330
59
100
AcDbEntity
  8
DEFPOINTS
 62
     0
100
AcDbPoint
 10
282.406499064284
 20
31.2858598411907
 30
0.0
  0
POINT
  5
62
330
59
100
AcDbEntity
  8
DEFPOINTS
 62
     0
100
AcDbPoint
 10
282.5064990642841
 20
31.2858598411907
 30
0.0
  0
POINT
  5
63
330
59
100
AcDbEntity
  8
DEFPOINTS
 62
     0
100
AcDbPoint
 10
282.5064990642841
 20
31.4870019519914
 30
0.0
  0
ENDBLK
  5
65
330
59
100
AcDbEntity
  8
0
100
AcDbBlockEnd
  0
BLOCK
  5
7C
330
71
100
AcDbEntity
  8
0
100
AcDbBlockBegin
  2
*D2
 70
     1
 10
0.0
 20
0.0
 30
0.0
  3
*D2
  1

  0
LINE
  5
7E
330
71
100
AcDbEntity
  8
0
 62
     0
100
AcDbLine
 10
282.3409647094862
 20
31.39901730967116
 30
0.0
 11
282.3409647094862
 21
31.71765942047185
 31
0.0
  0
LINE
  5
7F
330
71
100
AcDbEntity
  8
0
 62
     0
100
AcDbLine
 10
282.4409647094862
 20
31.39901730967116
 30
0.0
 11
282.4409647094862
 21
31.71765942047185
 31
0.0
  0
LINE
  5
80
330
71
100
AcDbEntity
  8
0
 62
     0
100
AcDbLine
 10
282.2909647094862
 20
31.53765942047185
 30
0.0
 11
282.2409647094861
 21
31.53765942047185
 31
0.0
  0
LINE
  5
81
330
71
100
AcDbEntity
  8
0
 62
     0
100
AcDbLine
 10
282.4909647094862
 20
31.53765942047185
 30
0.0
 11
282.5409647094862
 21
31.53765942047185
 31
0.0
  0
SOLID
  5
82
330
71
100
AcDbEntity
  8
0
 62
     0
100
AcDbTrace
 10
282.2909647094862
 20
31.54599275380518
 30
0.0
 11
282.2909647094862
 21
31.52932608713852
 31
0.0
 12
282.3409647094862
 22
31.53765942047185
 32
0.0
 13
282.3409647094862
 23
31.53765942047185
 33
0.0
  0
SOLID
  5
83
330
71
100
AcDbEntity
  8
0
 62
     0
100
AcDbTrace
 10
282.4909647094862
 20
31.54599275380518
 30
0.0
 11
282.4909647094862
 21
31.52932608713852
 31
0.0
 12
282.4409647094862
 22
31.53765942047185
 32
0.0
 13
282.4409647094862
 23
31.53765942047185
 33
0.0
  0
MTEXT
  5
84
330
71
100
AcDbEntity
  8
0
 62
     0
100
AcDbMText
 10
282.7309647094862
 20
31.53765942047185
 30
0.0
 40
0.05
 41
0.0
 71
     5
 72
     1
  1
\A1;0.1000
1001
ACAD
1000
MTEXTBEGIN
1070
    73
1070
     1
1070
    44
1040
1.0
1070
    74
1070
     0
1000
MTEXTEND
  0
POINT
  5
85
330
71
100
AcDbEntity
  8
DEFPOINTS
 62
     0
100
AcDbPoint
 10
282.3409647094862
 20
31.33651730967116
 30
0.0
  0
POINT
  5
86
330
71
100
AcDbEntity
  8
DEFPOINTS
 62
     0
100
AcDbPoint
 10
282.4409647094862
 20
31.33651730967116
 30
0.0
  0
POINT
  5
87
330
71
100
AcDbEntity
  8
DEFPOINTS
 62
     0
100
AcDbPoint
 10
282.4409647094862
 20
31.53765942047185
 30
0.0
  0
ENDBLK
  5
7D
330
71
100
AcDbEntity
  8
0
100
AcDbBlockEnd
  0
BLOCK
  5
94
330
89
100
AcDbEntity
  8
0
100
AcDbBlockBegin
  2
*D3
 70
     1
 10
0.0
 20
0.0
 30
0.0
  3
*D3
  1

  0
LINE
  5
AA
330
89
100
AcDbEntity
  8
0
 62
     0
100
AcDbLine
 10
282.3409647094862
 20
31.39901730967116
 30
0.0
 11
282.3409647094862
 21
31.67011203158797
 31
0.0
  0
LINE
  5
AB
330
89
100
AcDbEntity
  8
0
 62
     0
100
AcDbLine
 10
282.4409647094862
 20
31.39901730967116
 30
0.0
 11
282.4409647094862
 21
31.67011203158797
 31
0.0
  0
LINE
  5
AC
330
89
100
AcDbEntity
  8
0
 62
     0
100
AcDbLine
 10
282.2909647094862
 20
31.49011203158797
 30
0.0
 11
282.2409647094861
 21
31.49011203158797
 31
0.0
  0
LINE
  5
AD
330
89
100
AcDbEntity
  8
0
 62
     0
100
AcDbLine
 10
282.4909647094862
 20
31.49011203158797
 30
0.0
 11
282.8009647094862
 21
31.49011203158797
 31
0.0
  0
SOLID
  5
AE
330
89
100
AcDbEntity
  8
0
 62
     0
100
AcDbTrace
 10
282.2909647094862
 20
31.4984453649213
 30
0.0
 11
282.2909647094862
 21
31.48177869825464
 31
0.0
 12
282.3409647094862
 22
31.49011203158797
 32
0.0
 13
282.3409647094862
 23
31.49011203158797
 33
0.0
  0
SOLID
  5
AF
330
89
100
AcDbEntity
  8
0
 62
     0
100
AcDbTrace
 10
282.4909647094862
 20
31.4984453649213
 30
0.0
 11
282.4909647094862
 21
31.48177869825464
 31
0.0
 12
282.4409647094862
 22
31.49011203158797
 32
0.0
 13
282.4409647094862
 23
31.49011203158797
 33
0.0
  0
MTEXT
  5
B0
330
89
100
AcDbEntity
  8
0
 62
     0
100
AcDbMText
 10
283.2509647094862
 20
31.49011203158797
 30
0.0
 40
0.18
 41
0.0
 71
     5
 72
     1
  1
\A1;0.1000
1001
ACAD
1000
MTEXTBEGIN
1070
    73
1070
     1
1070
    44
1040
1.0
1070
    74
1070
     0
1000
MTEXTEND
  0
POINT
  5
B1
330
89
100
AcDbEntity
  8
DEFPOINTS
 62
     0
100
AcDbPoint
 10
282.3409647094862
 20
31.33651730967116
 30
0.0
  0
POINT
  5
B2
330
89
100
AcDbEntity
  8
DEFPOINTS
 62
     0
100
AcDbPoint
 10
282.4409647094862
 20
31.33651730967116
 30
0.0
  0
POINT
  5
B3
330
89
100
AcDbEntity
  8
DEFPOINTS
 62
     0
100
AcDbPoint
 10
282.4409647094862
 20
31.49011203158797
 30
0.0
  0
ENDBLK
  5
95
330
89
100
AcDbEntity
  8
0
100
AcDbBlockEnd
  0
ENDSEC
  0
SECTION
  2
ENTITIES
  0
TEXT
  5
2D
330
18
100
AcDbEntity
  8
0
  6
CONTINUOUS
100
AcDbText
 10
282.014
 20
32.413
 30
0.0
 40
0.06
  1
ESCALA  1:10
  7
ROMANC
100
AcDbText
  0
TEXT
  5
2E
330
18
100
AcDbEntity
  8
1
  6
CONTINUOUS
100
AcDbText
 10
282.2481245646151
 20
31.254593
 30
0.0
 40
0.018
  1
0.10
  7
ROMANC
100
AcDbText
  0
LINE
  5
2F
330
18
100
AcDbEntity
  8
1
  6
CONTINUOUS
100
AcDbLine
 10
282.3159331618508
 20
31.27509300251786
 30
0.0
 11
282.3519331618508
 21
31.27509300251786
 31
0.0
  0
LINE
  5
30
330
18
100
AcDbEntity
  8
1
  6
CONTINUOUS
100
AcDbLine
 10
282.4895719595156
 20
31.27509300251786
 30
0.0
 11
282.4535719595156
 21
31.27509300251786
 31
0.0
  0
LINE
  5
3B
330
18
100
AcDbEntity
  8
1
  6
CONTINUOUS
100
AcDbLine
 10
282.3519331618508
 20
31.14209300251786
 30
0.0
 11
282.3519331618508
 21
31.28770837564537
 31
0.0
  0
LINE
  5
3C
330
18
100
AcDbEntity
  8
1
  6
CONTINUOUS
100
AcDbLine
 10
282.4535719595156
 20
31.13644818389293
 30
0.0
 11
282.4535719595156
 21
31.28770837564537
 31
0.0
  0
TEXT
  5
3D
330
18
100
AcDbEntity
  8
0
  6
CONTINUOUS
100
AcDbText
 10
282.7033129999999
 20
32.353
 30
0.0
 40
0.02
  1
2
  7
ROMANC
100
AcDbText
  0
TEXT
  5
3E
330
18
100
AcDbEntity
  8
0
  6
CONTINUOUS
100
AcDbText
 10
282.014
 20
32.51099999999999
 30
0.0
 40
0.06
  1
TIPUS   D100
  7
ROMANC
100
AcDbText
  0
TEXT
  5
42
330
18
100
AcDbEntity
  8
0
  6
CONTINUOUS
100
AcDbText
 10
282.0159999999999
 20
32.30699999999999
 30
0.0
 40
0.06
  1
S = 0,79 dm
  7
ROMANC
100
AcDbText
  0
TEXT
  5
43
330
18
100
AcDbEntity
  8
0
  6
CONTINUOUS
100
AcDbText
 10
282.017
 20
32.202
 30
0.0
 40
0.06
  1
P = 3,14 dm
  7
ROMANC
100
AcDbText
  0
LINE
  5
45
330
18
100
AcDbEntity
  8
1
  6
CONTINUOUS
100
AcDbLine
 10
282.4715719595157
 20
31.27109300251786
 30
0.0
 11
282.4535719595156
 21
31.27509300251786
 31
0.0
  0
LINE
  5
46
330
18
100
AcDbEntity
  8
1
  6
CONTINUOUS
100
AcDbLine
 10
282.4535719595156
 20
31.27509300251786
 30
0.0
 11
282.4715719595157
 21
31.27909300251786
 31
0.0
  0
LINE
  5
47
330
18
100
AcDbEntity
  8
1
  6
CONTINUOUS
100
AcDbLine
 10
282.3339331618508
 20
31.27909300251786
 30
0.0
 11
282.3519331618508
 21
31.27509300251786
 31
0.0
  0
LINE
  5
48
330
18
100
AcDbEntity
  8
1
  6
CONTINUOUS
100
AcDbLine
 10
282.3519331618508
 20
31.27509300251786
 30
0.0
 11
282.3339331618508
 21
31.27109300251786
 31
0.0
  0
LINE
  5
49
330
18
100
AcDbEntity
  8
NO_PRINT
  6
CONTINUOUS
100
AcDbLine
 10
281.3959999999999
 20
32.86699999999999
 30
0.0
 11
283.4959999999999
 21
32.86699999999999
 31
0.0
  0
LINE
  5
4A
330
18
100
AcDbEntity
  8
NO_PRINT
  6
CONTINUOUS
100
AcDbLine
 10
283.4959999999999
 20
32.86699999999999
 30
0.0
 11
283.4959999999999
 21
29.897
 31
0.0
  0
LINE
  5
4B
330
18
100
AcDbEntity
  8
NO_PRINT
  6
CONTINUOUS
100
AcDbLine
 10
283.4959999999999
 20
29.897
 30
0.0
 11
281.3959999999999
 21
29.897
 31
0.0
  0
LINE
  5
4C
330
18
100
AcDbEntity
  8
NO_PRINT
  6
CONTINUOUS
100
AcDbLine
 10
281.3959999999999
 20
29.897
 30
0.0
 11
281.3959999999999
 21
32.86699999999999
 31
0.0
  0
CIRCLE
  5
70
330
18
100
AcDbEntity
  8
0
100
AcDbCircle
 10
282.4029315849914
 20
31.14249404760743
 30
0.0
 40
0.05
  0
CIRCLE
  5
B6
330
18
100
AcDbEntity
  8
0
100
AcDbCircle
 10
282.4029315849914
 20
31.14249404760743
 30
0.0
 40
0.051
  0
CIRCLE
  5
BB
330
18
100
AcDbEntity
  8
0
100
AcDbCircle
 10
282.4029315849914
 20
31.14249404760743
 30
0.0
 40
0.051
  0
ENDSEC
  0
SECTION
  2
OBJECTS
  0
DICTIONARY
  5
C
330
0
100
AcDbDictionary
  3
ACAD_GROUP
350
D
  3
ACAD_LAYOUT
350
53
  3
ACAD_MLINESTYLE
350
1B
  3
ACAD_PLOTSETTINGS
350
54
  3
ACAD_PLOTSTYLENAME
350
51
  3
ACDBHEADERROUNDTRIPXREC
350
C0
  3
ACDBVARIABLEDICTIONARY
350
BD
  0
DICTIONARY
  5
E2
330
18
100
AcDbDictionary
280
     1
  3
ACAD_LAYOUTSELFREF
360
E3
  0
DICTIONARY
  5
E0
330
15
100
AcDbDictionary
280
     1
  3
ACAD_LAYOUTSELFREF
360
E1
  0
DICTIONARY
  5
D
102
{ACAD_REACTORS
330
C
102
}
330
C
100
AcDbDictionary
  0
DICTIONARY
  5
53
102
{ACAD_REACTORS
330
C
102
}
330
C
100
AcDbDictionary
  0
DICTIONARY
  5
1B
102
{ACAD_REACTORS
330
C
102
}
330
C
100
AcDbDictionary
  3
STANDARD
350
1C
  0
DICTIONARY
  5
54
102
{ACAD_REACTORS
330
C
102
}
330
C
100
AcDbDictionary
  0
ACDBDICTIONARYWDFLT
  5
51
102
{ACAD_REACTORS
330
C
102
}
330
C
100
AcDbDictionary
281
     1
  3
Normal
350
52
100
AcDbDictionaryWithDefault
340
52
  0
DICTIONARY
  5
C0
102
{ACAD_REACTORS
330
C
102
}
330
C
100
AcDbDictionary
  3
CEPSNTYPE
350
CA
  3
FINGERPRINTGUID
350
CB
  3
HYPERLINKBASE
350
C3
  3
INSUNITS
350
C9
  3
LAYOUTDICT
350
C5
  3
LWETCUNION
350
C8
  3
PLOTSETDICT
350
C6
  3
PLOTSTYLNAMDICT
350
C7
  3
PSVPSCALE
350
CD
  3
PUCSBASE
350
D0
  3
PUCSORGBACK
350
D6
  3
PUCSORGBOTTOM
350
D2
  3
PUCSORGFRONT
350
D5
  3
PUCSORGLEFT
350
D3
  3
PUCSORGRIGHT
350
D4
  3
PUCSORGTOP
350
D1
  3
PUCSORTHOREF
350
CE
  3
PUCSORTHOVIEW
350
CF
  3
STYLESHEET
350
C4
  3
TSTACKALIGN
350
C1
  3
TSTACKSIZE
350
C2
  3
UCSBASE
350
D9
  3
UCSORGBACK
350
DF
  3
UCSORGBOTTOM
350
DB
  3
UCSORGFRONT
350
DE
  3
UCSORGLEFT
350
DC
  3
UCSORGRIGHT
350
DD
  3
UCSORGTOP
350
DA
  3
UCSORTHOREF
350
D7
  3
UCSORTHOVIEW
350
D8
  3
VERSIONGUID
350
CC
  0
DICTIONARY
  5
BD
102
{ACAD_REACTORS
330
C
102
}
330
C
100
AcDbDictionary
  3
DIMASSOC
350
BE
  0
XRECORD
  5
E3
102
{ACAD_REACTORS
330
E2
102
}
330
E2
100
AcDbXrecord
340
18
  0
XRECORD
  5
E1
102
{ACAD_REACTORS
330
E0
102
}
330
E0
100
AcDbXrecord
340
15
  0
MLINESTYLE
  5
1C
102
{ACAD_REACTORS
330
1B
102
}
330
1B
100
AcDbMlineStyle
  2
STANDARD
 70
     0
  3

 62
   256
 51
90.0
 52
90.0
 71
     2
 49
0.5
 62
   256
  6
BYLAYER
 49
-0.5
 62
   256
  6
BYLAYER
  0
ACDBPLACEHOLDER
  5
52
102
{ACAD_REACTORS
330
51
102
}
330
51
100
AcDbPlaceHolder
280
     0
  0
XRECORD
  5
CA
102
{ACAD_REACTORS
330
C0
102
}
330
C0
100
AcDbXrecord
 90
        0
  0
XRECORD
  5
CB
102
{ACAD_REACTORS
330
C0
102
}
330
C0
100
AcDbXrecord
  1
{EC02D794-DF3A-4DD9-9019-BAA00D77E229}
  0
XRECORD
  5
C3
102
{ACAD_REACTORS
330
C0
102
}
330
C0
100
AcDbXrecord
  1

  0
XRECORD
  5
C9
102
{ACAD_REACTORS
330
C0
102
}
330
C0
100
AcDbXrecord
 90
        0
  0
XRECORD
  5
C5
102
{ACAD_REACTORS
330
C0
102
}
330
C0
100
AcDbXrecord
340
53
  0
XRECORD
  5
C8
102
{ACAD_REACTORS
330
C0
102
}
330
C0
100
AcDbXrecord
 90
    10781
  0
XRECORD
  5
C6
102
{ACAD_REACTORS
330
C0
102
}
330
C0
100
AcDbXrecord
340
54
  0
XRECORD
  5
C7
102
{ACAD_REACTORS
330
C0
102
}
330
C0
100
AcDbXrecord
340
51
  0
XRECORD
  5
CD
102
{ACAD_REACTORS
330
C0
102
}
330
C0
100
AcDbXrecord
 40
0.0
  0
XRECORD
  5
D0
102
{ACAD_REACTORS
330
C0
102
}
330
C0
100
AcDbXrecord
340
0
  0
XRECORD
  5
D6
102
{ACAD_REACTORS
330
C0
102
}
330
C0
100
AcDbXrecord
 10
0.0
 20
0.0
 30
0.0
  0
XRECORD
  5
D2
102
{ACAD_REACTORS
330
C0
102
}
330
C0
100
AcDbXrecord
 10
0.0
 20
0.0
 30
0.0
  0
XRECORD
  5
D5
102
{ACAD_REACTORS
330
C0
102
}
330
C0
100
AcDbXrecord
 10
0.0
 20
0.0
 30
0.0
  0
XRECORD
  5
D3
102
{ACAD_REACTORS
330
C0
102
}
330
C0
100
AcDbXrecord
 10
0.0
 20
0.0
 30
0.0
  0
XRECORD
  5
D4
102
{ACAD_REACTORS
330
C0
102
}
330
C0
100
AcDbXrecord
 10
0.0
 20
0.0
 30
0.0
  0
XRECORD
  5
D1
102
{ACAD_REACTORS
330
C0
102
}
330
C0
100
AcDbXrecord
 10
0.0
 20
0.0
 30
0.0
  0
XRECORD
  5
CE
102
{ACAD_REACTORS
330
C0
102
}
330
C0
100
AcDbXrecord
340
0
  0
XRECORD
  5
CF
102
{ACAD_REACTORS
330
C0
102
}
330
C0
100
AcDbXrecord
 70
     0
  0
XRECORD
  5
C4
102
{ACAD_REACTORS
330
C0
102
}
330
C0
100
AcDbXrecord
  1

  0
XRECORD
  5
C1
102
{ACAD_REACTORS
330
C0
102
}
330
C0
100
AcDbXrecord
 90
        1
  0
XRECORD
  5
C2
102
{ACAD_REACTORS
330
C0
102
}
330
C0
100
AcDbXrecord
 90
       70
  0
XRECORD
  5
D9
102
{ACAD_REACTORS
330
C0
102
}
330
C0
100
AcDbXrecord
340
0
  0
XRECORD
  5
DF
102
{ACAD_REACTORS
330
C0
102
}
330
C0
100
AcDbXrecord
 10
0.0
 20
0.0
 30
0.0
  0
XRECORD
  5
DB
102
{ACAD_REACTORS
330
C0
102
}
330
C0
100
AcDbXrecord
 10
0.0
 20
0.0
 30
0.0
  0
XRECORD
  5
DE
102
{ACAD_REACTORS
330
C0
102
}
330
C0
100
AcDbXrecord
 10
0.0
 20
0.0
 30
0.0
  0
XRECORD
  5
DC
102
{ACAD_REACTORS
330
C0
102
}
330
C0
100
AcDbXrecord
 10
0.0
 20
0.0
 30
0.0
  0
XRECORD
  5
DD
102
{ACAD_REACTORS
330
C0
102
}
330
C0
100
AcDbXrecord
 10
0.0
 20
0.0
 30
0.0
  0
XRECORD
  5
DA
102
{ACAD_REACTORS
330
C0
102
}
330
C0
100
AcDbXrecord
 10
0.0
 20
0.0
 30
0.0
  0
XRECORD
  5
D7
102
{ACAD_REACTORS
330
C0
102
}
330
C0
100
AcDbXrecord
340
0
  0
XRECORD
  5
D8
102
{ACAD_REACTORS
330
C0
102
}
330
C0
100
AcDbXrecord
 70
     0
  0
XRECORD
  5
CC
102
{ACAD_REACTORS
330
C0
102
}
330
C0
100
AcDbXrecord
  1
{27CB4A02-2FE2-40AC-B595-7D007CC115D7}
  0
DICTIONARYVAR
  5
BE
102
{ACAD_REACTORS
330
BD
102
}
330
BD
100
DictionaryVariables
280
     0
  1
1
  0
ENDSEC
  0
EOF
