  0
SECTION
  2
HEADER
  9
$ACADVER
  1
AC1014
  9
$ACADMAINTVER
 70
     9
  9
$DWGCODEPAGE
  3
ANSI_1252
  9
$INSBASE
 10
0.0
 20
0.0
 30
0.0
  9
$EXTMIN
 10
320.7379163670561
 20
33.84215311293053
 30
-0.0015258207003583
  9
$EXTMAX
 10
326.0243233666108
 20
41.29080696211997
 30
0.0000000349246037
  9
$LIMMIN
 10
0.0
 20
0.0
  9
$LIMMAX
 10
410.0
 20
287.0
  9
$ORTHOMODE
 70
     1
  9
$REGENMODE
 70
     1
  9
$FILLMODE
 70
     1
  9
$QTEXTMODE
 70
     0
  9
$MIRRTEXT
 70
     1
  9
$DRAGMODE
 70
     2
  9
$LTSCALE
 40
25.0
  9
$OSMODE
 70
    45
  9
$ATTMODE
 70
     1
  9
$TEXTSIZE
 40
0.1
  9
$TRACEWID
 40
1.0
  9
$TEXTSTYLE
  7
ROMANC
  9
$CLAYER
  8
0
  9
$CELTYPE
  6
BYLAYER
  9
$CECOLOR
 62
   256
  9
$CELTSCALE
 40
1.0
  9
$DELOBJ
 70
     1
  9
$DISPSILH
 70
     0
  9
$DIMSCALE
 40
1.5
  9
$DIMASZ
 40
0.05
  9
$DIMEXO
 40
0.01
  9
$DIMDLI
 40
7.0
  9
$DIMRND
 40
0.0
  9
$DIMDLE
 40
0.0
  9
$DIMEXE
 40
0.01
  9
$DIMTP
 40
0.0
  9
$DIMTM
 40
0.0
  9
$DIMTXT
 40
0.05
  9
$DIMCEN
 40
0.0
  9
$DIMTSZ
 40
0.0
  9
$DIMTOL
 70
     0
  9
$DIMLIM
 70
     0
  9
$DIMTIH
 70
     0
  9
$DIMTOH
 70
     0
  9
$DIMSE1
 70
     0
  9
$DIMSE2
 70
     0
  9
$DIMTAD
 70
     1
  9
$DIMZIN
 70
     0
  9
$DIMBLK
  1
OBLIQUE
  9
$DIMASO
 70
     1
  9
$DIMSHO
 70
     0
  9
$DIMPOST
  1

  9
$DIMAPOST
  1

  9
$DIMALT
 70
     0
  9
$DIMALTD
 70
     2
  9
$DIMALTF
 40
25.4
  9
$DIMLFAC
 40
1.0
  9
$DIMTOFL
 70
     1
  9
$DIMTVP
 40
0.0
  9
$DIMTIX
 70
     1
  9
$DIMSOXD
 70
     0
  9
$DIMSAH
 70
     0
  9
$DIMBLK1
  1

  9
$DIMBLK2
  1

  9
$DIMSTYLE
  2
MERITXELL
  9
$DIMCLRD
 70
     0
  9
$DIMCLRE
 70
     0
  9
$DIMCLRT
 70
     0
  9
$DIMTFAC
 40
70.0
  9
$DIMGAP
 40
0.025
  9
$DIMJUST
 70
     0
  9
$DIMSD1
 70
     0
  9
$DIMSD2
 70
     0
  9
$DIMTOLJ
 70
     1
  9
$DIMTZIN
 70
     0
  9
$DIMALTZ
 70
     0
  9
$DIMALTTZ
 70
     0
  9
$DIMFIT
 70
     3
  9
$DIMUPT
 70
     0
  9
$DIMUNIT
 70
     2
  9
$DIMDEC
 70
     2
  9
$DIMTDEC
 70
     2
  9
$DIMALTU
 70
     2
  9
$DIMALTTD
 70
     2
  9
$DIMTXSTY
  7
ROMANC
  9
$DIMAUNIT
 70
     0
  9
$LUNITS
 70
     2
  9
$LUPREC
 70
     2
  9
$SKETCHINC
 40
1.0
  9
$FILLETRAD
 40
0.0
  9
$AUNITS
 70
     0
  9
$AUPREC
 70
     0
  9
$MENU
  1
acad
  9
$ELEVATION
 40
0.0
  9
$PELEVATION
 40
0.0
  9
$THICKNESS
 40
0.0
  9
$LIMCHECK
 70
     0
  9
$BLIPMODE
 70
     0
  9
$CHAMFERA
 40
0.0
  9
$CHAMFERB
 40
0.0
  9
$CHAMFERC
 40
0.0
  9
$CHAMFERD
 40
0.0
  9
$SKPOLY
 70
     0
  9
$TDCREATE
 40
2450927.503616667
  9
$TDUPDATE
 40
2453244.487017199
  9
$TDINDWG
 40
0.3361495949
  9
$TDUSRTIMER
 40
0.3361430556
  9
$USRTIMER
 70
     1
  9
$ANGBASE
 50
0.0
  9
$ANGDIR
 70
     0
  9
$PDMODE
 70
     0
  9
$PDSIZE
 40
0.0
  9
$PLINEWID
 40
0.0
  9
$COORDS
 70
     1
  9
$SPLFRAME
 70
     0
  9
$SPLINETYPE
 70
     6
  9
$SPLINESEGS
 70
     8
  9
$ATTDIA
 70
     0
  9
$ATTREQ
 70
     1
  9
$HANDLING
 70
 22529
  9
$HANDSEED
  5
1705
  9
$SURFTAB1
 70
     6
  9
$SURFTAB2
 70
     6
  9
$SURFTYPE
 70
     6
  9
$SURFU
 70
     6
  9
$SURFV
 70
     6
  9
$UCSNAME
  2

  9
$UCSORG
 10
0.0
 20
0.0
 30
0.0
  9
$UCSXDIR
 10
1.0
 20
0.0
 30
0.0
  9
$UCSYDIR
 10
0.0
 20
1.0
 30
0.0
  9
$PUCSNAME
  2

  9
$PUCSORG
 10
0.0
 20
0.0
 30
0.0
  9
$PUCSXDIR
 10
1.0
 20
0.0
 30
0.0
  9
$PUCSYDIR
 10
0.0
 20
1.0
 30
0.0
  9
$USERI1
 70
     0
  9
$USERI2
 70
     0
  9
$USERI3
 70
     0
  9
$USERI4
 70
     0
  9
$USERI5
 70
     0
  9
$USERR1
 40
0.0
  9
$USERR2
 40
0.0
  9
$USERR3
 40
0.0
  9
$USERR4
 40
0.0
  9
$USERR5
 40
0.0
  9
$WORLDVIEW
 70
     1
  9
$SHADEDGE
 70
     3
  9
$SHADEDIF
 70
    70
  9
$TILEMODE
 70
     1
  9
$MAXACTVP
 70
    16
  9
$PINSBASE
 10
0.0
 20
0.0
 30
0.0
  9
$PLIMCHECK
 70
     0
  9
$PEXTMIN
 10
0.2116081523232864
 20
0.2346387408828896
 30
0.0
  9
$PEXTMAX
 10
15.88014469551259
 20
22.75922992126416
 30
0.0
  9
$PLIMMIN
 10
-0.211260093180138
 20
-0.1911951125826537
  9
$PLIMMAX
 10
16.31540578211206
 20
23.19880559869317
  9
$UNITMODE
 70
     0
  9
$VISRETAIN
 70
     0
  9
$PLINEGEN
 70
     0
  9
$PSLTSCALE
 70
     0
  9
$TREEDEPTH
 70
  3020
  9
$PICKSTYLE
 70
     1
  9
$CMLSTYLE
  2
STANDARD
  9
$CMLJUST
 70
     0
  9
$CMLSCALE
 40
1.0
  9
$PROXYGRAPHICS
 70
     1
  9
$MEASUREMENT
 70
     0
  0
ENDSEC
  0
SECTION
  2
CLASSES
  0
CLASS
  1
DICTIONARYVAR
  2
AcDbDictionaryVar
  3
AutoCAD 2000
 90
        0
280
     0
281
     0
  0
CLASS
  1
LWPOLYLINE
  2
AcDbPolyline
  3
AutoCAD 2000
 90
        0
280
     0
281
     1
  0
CLASS
  1
ACDBDICTIONARYWDFLT
  2
AcDbDictionaryWithDefault
  3
AutoCAD 2000
 90
        0
280
     0
281
     0
  0
CLASS
  1
ACDBPLACEHOLDER
  2
AcDbPlaceHolder
  3
AutoCAD 2000
 90
        0
280
     0
281
     0
  0
CLASS
  1
LAYOUT
  2
AcDbLayout
  3
AutoCAD 2000
 90
        0
280
     0
281
     0
  0
CLASS
  1
LONG_TRANSACTION
  2
AcDbLongTransaction
  3
AutoCAD 2000
 90
        0
280
     0
281
     0
  0
CLASS
  1
LWPOLYLINE
  2
AcDbPolyline
  3
AutoCAD 2000
 90
        0
280
     0
281
     1
  0
CLASS
  1
HATCH
  2
AcDbHatch
  3
AutoCAD 2000
 90
        0
280
     0
281
     1
  0
CLASS
  1
XRECORD
  2
AcDbXrecord
  3
AutoCAD 2000
 90
        0
280
     0
281
     0
  0
CLASS
  1
LONG_TRANSACTION
  2
AcDbLongTransaction
  3
AutoCAD 2000
 90
        0
280
     0
281
     0
  0
CLASS
  1
LWPOLYLINE
  2
AcDbPolyline
  3
AutoCAD 2000
 90
        0
280
     0
281
     1
  0
CLASS
  1
HATCH
  2
AcDbHatch
  3
AutoCAD 2000
 90
        0
280
     0
281
     1
  0
CLASS
  1
XRECORD
  2
AcDbXrecord
  3
AutoCAD 2000
 90
        0
280
     0
281
     0
  0
CLASS
  1
LONG_TRANSACTION
  2
AcDbLongTransaction
  3
AutoCAD 2000
 90
        0
280
     0
281
     0
  0
CLASS
  1
LWPOLYLINE
  2
AcDbPolyline
  3
AutoCAD 2000
 90
        0
280
     0
281
     1
  0
CLASS
  1
HATCH
  2
AcDbHatch
  3
AutoCAD 2000
 90
        0
280
     0
281
     1
  0
CLASS
  1
XRECORD
  2
AcDbXrecord
  3
AutoCAD 2000
 90
        0
280
     0
281
     0
  0
CLASS
  1
LONG_TRANSACTION
  2
AcDbLongTransaction
  3
AutoCAD 2000
 90
        0
280
     0
281
     0
  0
CLASS
  1
LWPOLYLINE
  2
AcDbPolyline
  3
AutoCAD 2000
 90
        0
280
     0
281
     1
  0
CLASS
  1
HATCH
  2
AcDbHatch
  3
AutoCAD 2000
 90
        0
280
     0
281
     1
  0
CLASS
  1
XRECORD
  2
AcDbXrecord
  3
AutoCAD 2000
 90
        0
280
     0
281
     0
  0
CLASS
  1
LONG_TRANSACTION
  2
AcDbLongTransaction
  3
AutoCAD 2000
 90
        0
280
     0
281
     0
  0
CLASS
  1
LWPOLYLINE
  2
AcDbPolyline
  3
AutoCAD 2000
 90
        0
280
     0
281
     1
  0
CLASS
  1
HATCH
  2
AcDbHatch
  3
AutoCAD 2000
 90
        0
280
     0
281
     1
  0
CLASS
  1
XRECORD
  2
AcDbXrecord
  3
AutoCAD 2000
 90
        0
280
     0
281
     0
  0
CLASS
  1
LONG_TRANSACTION
  2
AcDbLongTransaction
  3
AutoCAD 2000
 90
        0
280
     0
281
     0
  0
CLASS
  1
LWPOLYLINE
  2
AcDbPolyline
  3
AutoCAD 2000
 90
        0
280
     0
281
     1
  0
CLASS
  1
HATCH
  2
AcDbHatch
  3
AutoCAD 2000
 90
        0
280
     0
281
     1
  0
CLASS
  1
XRECORD
  2
AcDbXrecord
  3
AutoCAD 2000
 90
        0
280
     0
281
     0
  0
ENDSEC
  0
SECTION
  2
TABLES
  0
TABLE
  2
VPORT
  5
8
330
0
100
AcDbSymbolTable
 70
     4
  0
VPORT
  5
16E1
330
8
100
AcDbSymbolTableRecord
100
AcDbViewportTableRecord
  2
*ACTIVE
 70
     0
 10
0.0
 20
0.0
 11
1.0
 21
1.0
 12
323.3811198668334
 22
37.56648003752525
 13
0.0
 23
0.0
 14
1.0
 24
1.0
 15
10.0
 25
10.0
 16
0.0
 26
0.0
 36
1.0
 17
0.0
 27
0.0
 37
0.0
 40
7.504171766077803
 41
1.498756218905472
 42
50.0
 43
0.0
 44
0.0
 50
0.0
 51
0.0
 71
     0
 72
   100
 73
     1
 74
     0
 75
     0
 76
     0
 77
     0
 78
     1
  0
ENDTAB
  0
TABLE
  2
LTYPE
  5
5
330
0
100
AcDbSymbolTable
 70
     1
  0
LTYPE
  5
11
330
5
100
AcDbSymbolTableRecord
100
AcDbLinetypeTableRecord
  2
BYBLOCK
 70
     0
  3

 72
    65
 73
     0
 40
0.0
  0
LTYPE
  5
12
330
5
100
AcDbSymbolTableRecord
100
AcDbLinetypeTableRecord
  2
BYLAYER
 70
     0
  3

 72
    65
 73
     0
 40
0.0
  0
LTYPE
  5
13
330
5
100
AcDbSymbolTableRecord
100
AcDbLinetypeTableRecord
  2
CONTINUOUS
 70
     0
  3
Solid line
 72
    65
 73
     0
 40
0.0
  0
ENDTAB
  0
TABLE
  2
LAYER
  5
2
330
0
100
AcDbSymbolTable
 70
     4
  0
LAYER
  5
E
330
2
100
AcDbSymbolTableRecord
100
AcDbLayerTableRecord
  2
0
 70
     0
 62
     7
  6
CONTINUOUS
  0
LAYER
  5
70C
330
2
100
AcDbSymbolTableRecord
100
AcDbLayerTableRecord
  2
DEFPOINTS
 70
     0
 62
     7
  6
CONTINUOUS
  0
LAYER
  5
FD0
330
2
100
AcDbSymbolTableRecord
100
AcDbLayerTableRecord
  2
FINESTRA
 70
     0
 62
     7
  6
CONTINUOUS
  0
LAYER
  5
1204
330
2
100
AcDbSymbolTableRecord
100
AcDbLayerTableRecord
  2
NO_PRINT
 70
     0
 62
     7
  6
CONTINUOUS
  0
ENDTAB
  0
TABLE
  2
STYLE
  5
3
330
0
100
AcDbSymbolTable
 70
     2
  0
STYLE
  5
F
330
3
100
AcDbSymbolTableRecord
100
AcDbTextStyleTableRecord
  2
STANDARD
 70
     0
 40
0.0
 41
1.0
 50
0.0
 71
     0
 42
0.1
  3
txt
  4

  0
STYLE
  5
1C
330
3
100
AcDbSymbolTableRecord
100
AcDbTextStyleTableRecord
  2
ROMANC
 70
     0
 40
0.0
 41
1.0
 50
0.0
 71
     0
 42
0.1
  3
romanc
  4

  0
ENDTAB
  0
TABLE
  2
VIEW
  5
6
330
0
100
AcDbSymbolTable
 70
     0
  0
ENDTAB
  0
TABLE
  2
UCS
  5
7
330
0
100
AcDbSymbolTable
 70
     0
  0
ENDTAB
  0
TABLE
  2
APPID
  5
9
330
0
100
AcDbSymbolTable
 70
     1
  0
APPID
  5
10
330
9
100
AcDbSymbolTableRecord
100
AcDbRegAppTableRecord
  2
ACAD
 70
     0
  0
ENDTAB
  0
TABLE
  2
DIMSTYLE
  5
A
330
0
100
AcDbSymbolTable
 70
     1
  0
DIMSTYLE
105
1F
330
A
100
AcDbSymbolTableRecord
100
AcDbDimStyleTableRecord
  2
MERITXELL
 70
     0
  3

  4

  5
OBLIQUE
  6

  7

 40
1.5
 41
0.05
 42
0.01
 43
7.0
 44
0.01
 45
0.0
 46
0.0
 47
0.0
 48
0.0
140
0.05
141
0.1
142
0.0
143
25.4
144
1.0
145
0.0
146
70.0
147
0.09
 71
     0
 72
     0
 73
     0
 74
     0
 75
     0
 76
     0
 77
     1
 78
     0
170
     0
171
     2
172
     1
173
     0
174
     1
175
     0
176
     0
177
     0
178
     0
270
     2
271
     2
272
     2
273
     2
274
     2
340
1C
275
     0
280
     0
281
     0
282
     0
283
     1
284
     0
285
     0
286
     0
287
     3
288
     0
  0
ENDTAB
  0
TABLE
  2
BLOCK_RECORD
  5
1
330
0
100
AcDbSymbolTable
 70
    12
  0
BLOCK_RECORD
  5
17
102
{ACAD_XDICTIONARY
360
11AB
102
}
330
1
100
AcDbSymbolTableRecord
100
AcDbBlockTableRecord
  2
*MODEL_SPACE
  0
BLOCK_RECORD
  5
14
102
{ACAD_XDICTIONARY
360
11A9
102
}
330
1
100
AcDbSymbolTableRecord
100
AcDbBlockTableRecord
  2
*PAPER_SPACE
  0
BLOCK_RECORD
  5
386
330
1
100
AcDbSymbolTableRecord
100
AcDbBlockTableRecord
  2
TICK
  0
BLOCK_RECORD
  5
11DB
330
1
100
AcDbSymbolTableRecord
100
AcDbBlockTableRecord
  2
_OBLIQUE
  0
BLOCK_RECORD
  5
1321
330
1
100
AcDbSymbolTableRecord
100
AcDbBlockTableRecord
  2
*D2
  0
BLOCK_RECORD
  5
1330
330
1
100
AcDbSymbolTableRecord
100
AcDbBlockTableRecord
  2
*D3
  0
BLOCK_RECORD
  5
1468
330
1
100
AcDbSymbolTableRecord
100
AcDbBlockTableRecord
  2
*D4
  0
BLOCK_RECORD
  5
1475
330
1
100
AcDbSymbolTableRecord
100
AcDbBlockTableRecord
  2
*D5
  0
BLOCK_RECORD
  5
151D
330
1
100
AcDbSymbolTableRecord
100
AcDbBlockTableRecord
  2
*D6
  0
BLOCK_RECORD
  5
152A
330
1
100
AcDbSymbolTableRecord
100
AcDbBlockTableRecord
  2
*D7
  0
BLOCK_RECORD
  5
1593
330
1
100
AcDbSymbolTableRecord
100
AcDbBlockTableRecord
  2
*D8
  0
BLOCK_RECORD
  5
15A0
330
1
100
AcDbSymbolTableRecord
100
AcDbBlockTableRecord
  2
*D9
  0
BLOCK_RECORD
  5
169F
330
1
100
AcDbSymbolTableRecord
100
AcDbBlockTableRecord
  2
*D10
  0
BLOCK_RECORD
  5
16AE
330
1
100
AcDbSymbolTableRecord
100
AcDbBlockTableRecord
  2
*D11
  0
ENDTAB
  0
ENDSEC
  0
SECTION
  2
BLOCKS
  0
BLOCK
  5
23
330
17
100
AcDbEntity
  8
0
100
AcDbBlockBegin
  2
*MODEL_SPACE
 70
     0
 10
0.0
 20
0.0
 30
0.0
  3
*MODEL_SPACE
  1

  0
ENDBLK
  5
24
330
17
100
AcDbEntity
  8
0
100
AcDbBlockEnd
  0
BLOCK
  5
21
330
14
100
AcDbEntity
 67
     1
  8
0
100
AcDbBlockBegin
  2
*PAPER_SPACE
 70
     0
 10
0.0
 20
0.0
 30
0.0
  3
*PAPER_SPACE
  1

  0
ENDBLK
  5
22
330
14
100
AcDbEntity
 67
     1
  8
0
100
AcDbBlockEnd
  0
BLOCK
  5
389
330
386
100
AcDbEntity
  8
0
100
AcDbBlockBegin
  2
TICK
 70
     0
 10
0.0
 20
0.0
 30
0.0
  3
TICK
  1

  0
LINE
  5
387
330
386
100
AcDbEntity
  8
0
  6
BYBLOCK
 62
     6
100
AcDbLine
 10
-1.0
 20
-1.0
 30
0.0
 11
1.0
 21
1.0
 31
0.0
  0
LINE
  5
388
330
386
100
AcDbEntity
  8
0
  6
BYBLOCK
 62
    71
100
AcDbLine
 10
0.0
 20
0.0
 30
0.0
 11
-1.0
 21
0.0
 31
0.0
  0
ENDBLK
  5
38A
330
386
100
AcDbEntity
  8
0
100
AcDbBlockEnd
  0
BLOCK
  5
11DD
330
11DB
100
AcDbEntity
  8
0
100
AcDbBlockBegin
  2
_OBLIQUE
 70
     0
 10
0.0
 20
0.0
 30
0.0
  3
_OBLIQUE
  1

  0
LINE
  5
11DC
330
11DB
100
AcDbEntity
  8
0
 62
     0
100
AcDbLine
 10
-0.5
 20
-0.5
 30
0.0
 11
0.5
 21
0.5
 31
0.0
  0
ENDBLK
  5
11DE
330
11DB
100
AcDbEntity
  8
0
100
AcDbBlockEnd
  0
BLOCK
  5
132D
330
1321
100
AcDbEntity
  8
0
100
AcDbBlockBegin
  2
*D2
 70
     1
 10
0.0
 20
0.0
 30
0.0
  3
*D2
  1

  0
LINE
  5
1322
330
1321
100
AcDbEntity
  8
0
 62
     0
100
AcDbLine
 10
323.6822021656935
 20
37.06962121076326
 30
0.0
 11
323.8171638942673
 21
37.06962121076326
 31
0.0
  0
LINE
  5
1323
330
1321
100
AcDbEntity
  8
0
 62
     0
100
AcDbLine
 10
323.6822021656935
 20
37.08962121076326
 30
0.0
 11
323.8171638942673
 21
37.08962121076326
 31
0.0
  0
LINE
  5
1324
330
1321
100
AcDbEntity
  8
0
 62
     0
100
AcDbLine
 10
323.8021638942673
 20
37.06962121076326
 30
0.0
 11
323.8021638942673
 21
36.99462121076324
 31
0.0
  0
LINE
  5
1325
330
1321
100
AcDbEntity
  8
0
 62
     0
100
AcDbLine
 10
323.8021638942673
 20
37.08962121076326
 30
0.0
 11
323.8021638942673
 21
37.16462121076325
 31
0.0
  0
LINE
  5
1326
330
1321
100
AcDbEntity
  8
0
 62
     0
100
AcDbLine
 10
323.8021638942673
 20
37.06962121076326
 30
0.0
 11
323.8021638942673
 21
37.08962121076326
 31
0.0
  0
INSERT
  5
1327
330
1321
100
AcDbEntity
  8
0
 62
     0
100
AcDbBlockReference
  2
_OBLIQUE
 10
323.8021638942673
 20
37.06962121076326
 30
0.0
 41
0.075
 42
0.075
 43
0.075
 50
90.0
  0
INSERT
  5
1328
330
1321
100
AcDbEntity
  8
0
 62
     0
100
AcDbBlockReference
  2
_OBLIQUE
 10
323.8021638942673
 20
37.08962121076326
 30
0.0
 41
0.075
 42
0.075
 43
0.075
 50
270.0
  0
MTEXT
  5
1329
330
1321
100
AcDbEntity
  8
0
 62
     0
100
AcDbMText
 10
323.7271638942674
 20
37.07962121076331
 30
0.0
 40
0.075
 41
0.0
 71
     5
 72
     1
  1
\A1;0.02
  7
ROMANC
 11
0.0000000000000001
 21
1.0
 31
0.0
1001
ACAD
1000
MTEXTBEGIN
1070
    73
1070
     1
1070
    44
1040
1.0
1070
    74
1070
     0
1000
MTEXTEND
1000
MTEXTBEGIN
1070
    73
1070
     1
1070
    44
1040
1.0
1070
    74
1070
     0
1000
MTEXTEND
1000
MTEXTBEGIN
1070
    73
1070
     1
1070
    44
1040
1.0
1070
    74
1070
     0
1000
MTEXTEND
1000
MTEXTBEGIN
1070
    73
1070
     1
1070
    44
1040
1.0
1070
    74
1070
     0
1000
MTEXTEND
  0
POINT
  5
132A
330
1321
100
AcDbEntity
  8
DEFPOINTS
 62
     0
100
AcDbPoint
 10
323.6672021656935
 20
37.06962121076326
 30
0.0
  0
POINT
  5
132B
330
1321
100
AcDbEntity
  8
DEFPOINTS
 62
     0
100
AcDbPoint
 10
323.6672021656935
 20
37.08962121076326
 30
0.0
  0
POINT
  5
132C
330
1321
100
AcDbEntity
  8
DEFPOINTS
 62
     0
100
AcDbPoint
 10
323.8021638942673
 20
37.08962121076326
 30
0.0
  0
ENDBLK
  5
132E
330
1321
100
AcDbEntity
  8
0
100
AcDbBlockEnd
  0
BLOCK
  5
133A
330
1330
100
AcDbEntity
  8
0
100
AcDbBlockBegin
  2
*D3
 70
     1
 10
0.0
 20
0.0
 30
0.0
  3
*D3
  1

  0
LINE
  5
1331
330
1330
100
AcDbEntity
  8
0
 62
     0
100
AcDbLine
 10
323.1672021656935
 20
37.07462121076326
 30
0.0
 11
323.1672021656935
 21
36.84526002936314
 31
0.0
  0
LINE
  5
1332
330
1330
100
AcDbEntity
  8
0
 62
     0
100
AcDbLine
 10
323.6672021656935
 20
37.07462121076326
 30
0.0
 11
323.6672021656935
 21
36.84526002936314
 31
0.0
  0
LINE
  5
1333
330
1330
100
AcDbEntity
  8
0
 62
     0
100
AcDbLine
 10
323.1672021656935
 20
36.86026002936314
 30
0.0
 11
323.6672021656935
 21
36.86026002936314
 31
0.0
  0
INSERT
  5
1334
330
1330
100
AcDbEntity
  8
0
 62
     0
100
AcDbBlockReference
  2
_OBLIQUE
 10
323.1672021656935
 20
36.86026002936314
 30
0.0
 41
0.075
 42
0.075
 43
0.075
 50
180.0
  0
INSERT
  5
1335
330
1330
100
AcDbEntity
  8
0
 62
     0
100
AcDbBlockReference
  2
_OBLIQUE
 10
323.6672021656935
 20
36.86026002936314
 30
0.0
 41
0.075
 42
0.075
 43
0.075
  0
MTEXT
  5
1336
330
1330
100
AcDbEntity
  8
0
 62
     0
100
AcDbMText
 10
323.4172021656935
 20
36.93526002936315
 30
0.0
 40
0.075
 41
0.0
 71
     5
 72
     1
  1
\A1;0.50
  7
ROMANC
1001
ACAD
1000
MTEXTBEGIN
1070
    73
1070
     1
1070
    44
1040
1.0
1070
    74
1070
     0
1000
MTEXTEND
1000
MTEXTBEGIN
1070
    73
1070
     1
1070
    44
1040
1.0
1070
    74
1070
     0
1000
MTEXTEND
1000
MTEXTBEGIN
1070
    73
1070
     1
1070
    44
1040
1.0
1070
    74
1070
     0
1000
MTEXTEND
1000
MTEXTBEGIN
1070
    73
1070
     1
1070
    44
1040
1.0
1070
    74
1070
     0
1000
MTEXTEND
  0
POINT
  5
1337
330
1330
100
AcDbEntity
  8
DEFPOINTS
 62
     0
100
AcDbPoint
 10
323.1672021656935
 20
37.08962121076326
 30
0.0
  0
POINT
  5
1338
330
1330
100
AcDbEntity
  8
DEFPOINTS
 62
     0
100
AcDbPoint
 10
323.6672021656935
 20
37.08962121076326
 30
0.0
  0
POINT
  5
1339
330
1330
100
AcDbEntity
  8
DEFPOINTS
 62
     0
100
AcDbPoint
 10
323.6672021656935
 20
36.86026002936314
 30
0.0
  0
ENDBLK
  5
133B
330
1330
100
AcDbEntity
  8
0
100
AcDbBlockEnd
  0
BLOCK
  5
1472
330
1468
100
AcDbEntity
  8
0
100
AcDbBlockBegin
  2
*D4
 70
     1
 10
0.0
 20
0.0
 30
0.0
  3
*D4
  1

  0
LINE
  5
1469
330
1468
100
AcDbEntity
  8
0
 62
     0
100
AcDbLine
 10
322.4369251598333
 20
37.63550933443507
 30
0.0
 11
322.4369251598333
 21
37.74750426807303
 31
0.0
  0
LINE
  5
146A
330
1468
100
AcDbEntity
  8
0
 62
     0
100
AcDbLine
 10
324.0369251598333
 20
37.63550933443507
 30
0.0
 11
324.0369251598333
 21
37.74750426807303
 31
0.0
  0
LINE
  5
146B
330
1468
100
AcDbEntity
  8
0
 62
     0
100
AcDbLine
 10
322.4369251598333
 20
37.73250426807303
 30
0.0
 11
324.0369251598333
 21
37.73250426807303
 31
0.0
  0
INSERT
  5
146C
330
1468
100
AcDbEntity
  8
0
 62
     0
100
AcDbBlockReference
  2
_OBLIQUE
 10
322.4369251598333
 20
37.73250426807303
 30
0.0
 41
0.075
 42
0.075
 43
0.075
 50
180.0
  0
INSERT
  5
146D
330
1468
100
AcDbEntity
  8
0
 62
     0
100
AcDbBlockReference
  2
_OBLIQUE
 10
324.0369251598333
 20
37.73250426807303
 30
0.0
 41
0.075
 42
0.075
 43
0.075
  0
MTEXT
  5
146E
330
1468
100
AcDbEntity
  8
0
 62
     0
100
AcDbMText
 10
323.2369251598332
 20
37.80750426807303
 30
0.0
 40
0.075
 41
0.0
 71
     5
 72
     1
  1
\A1;1.60
  7
ROMANC
1001
ACAD
1000
MTEXTBEGIN
1070
    73
1070
     1
1070
    44
1040
1.0
1070
    74
1070
     0
1000
MTEXTEND
1000
MTEXTBEGIN
1070
    73
1070
     1
1070
    44
1040
1.0
1070
    74
1070
     0
1000
MTEXTEND
  0
POINT
  5
146F
330
1468
100
AcDbEntity
  8
DEFPOINTS
 62
     0
100
AcDbPoint
 10
322.4369251598333
 20
37.62050933443507
 30
0.0
  0
POINT
  5
1470
330
1468
100
AcDbEntity
  8
DEFPOINTS
 62
     0
100
AcDbPoint
 10
324.0369251598333
 20
37.62050933443507
 30
0.0
  0
POINT
  5
1471
330
1468
100
AcDbEntity
  8
DEFPOINTS
 62
     0
100
AcDbPoint
 10
324.0369251598333
 20
37.73250426807303
 30
0.0
  0
ENDBLK
  5
1473
330
1468
100
AcDbEntity
  8
0
100
AcDbBlockEnd
  0
BLOCK
  5
147F
330
1475
100
AcDbEntity
  8
0
100
AcDbBlockBegin
  2
*D5
 70
     1
 10
0.0
 20
0.0
 30
0.0
  3
*D5
  1

  0
LINE
  5
1476
330
1475
100
AcDbEntity
  8
0
 62
     0
100
AcDbLine
 10
324.0519251598332
 20
37.62050933443507
 30
0.0
 11
324.2319159206328
 21
37.62050933443507
 31
0.0
  0
LINE
  5
1477
330
1475
100
AcDbEntity
  8
0
 62
     0
100
AcDbLine
 10
323.2519251598333
 20
37.27050933443507
 30
0.0
 11
324.2319159206328
 21
37.27050933443507
 31
0.0
  0
LINE
  5
1478
330
1475
100
AcDbEntity
  8
0
 62
     0
100
AcDbLine
 10
324.2169159206328
 20
37.62050933443507
 30
0.0
 11
324.2169159206328
 21
37.27050933443507
 31
0.0
  0
INSERT
  5
1479
330
1475
100
AcDbEntity
  8
0
 62
     0
100
AcDbBlockReference
  2
_OBLIQUE
 10
324.2169159206328
 20
37.62050933443507
 30
0.0
 41
0.075
 42
0.075
 43
0.075
 50
90.0
  0
INSERT
  5
147A
330
1475
100
AcDbEntity
  8
0
 62
     0
100
AcDbBlockReference
  2
_OBLIQUE
 10
324.2169159206328
 20
37.27050933443507
 30
0.0
 41
0.075
 42
0.075
 43
0.075
 50
270.0
  0
MTEXT
  5
147B
330
1475
100
AcDbEntity
  8
0
 62
     0
100
AcDbMText
 10
324.1419159206328
 20
37.44550933443511
 30
0.0
 40
0.075
 41
0.0
 71
     5
 72
     1
  1
\A1;0.35
  7
ROMANC
 11
0.0000000000000001
 21
1.0
 31
0.0
1001
ACAD
1000
MTEXTBEGIN
1070
    73
1070
     1
1070
    44
1040
1.0
1070
    74
1070
     0
1000
MTEXTEND
1000
MTEXTBEGIN
1070
    73
1070
     1
1070
    44
1040
1.0
1070
    74
1070
     0
1000
MTEXTEND
  0
POINT
  5
147C
330
1475
100
AcDbEntity
  8
DEFPOINTS
 62
     0
100
AcDbPoint
 10
324.0369251598333
 20
37.62050933443507
 30
0.0
  0
POINT
  5
147D
330
1475
100
AcDbEntity
  8
DEFPOINTS
 62
     0
100
AcDbPoint
 10
323.2369251598332
 20
37.27050933443507
 30
0.0
  0
POINT
  5
147E
330
1475
100
AcDbEntity
  8
DEFPOINTS
 62
     0
100
AcDbPoint
 10
324.2169159206328
 20
37.27050933443507
 30
0.0
  0
ENDBLK
  5
1480
330
1475
100
AcDbEntity
  8
0
100
AcDbBlockEnd
  0
BLOCK
  5
1527
330
151D
100
AcDbEntity
  8
0
100
AcDbBlockBegin
  2
*D6
 70
     1
 10
0.0
 20
0.0
 30
0.0
  3
*D6
  1

  0
LINE
  5
154A
330
151D
100
AcDbEntity
  8
0
 62
     0
100
AcDbLine
 10
322.8659196865076
 20
37.36982286387076
 30
0.0
 11
322.8659196865076
 21
37.00666838947521
 31
0.0
  0
LINE
  5
154B
330
151D
100
AcDbEntity
  8
0
 62
     0
100
AcDbLine
 10
323.3659196865076
 20
37.36982286387076
 30
0.0
 11
323.3659196865076
 21
37.00666838947521
 31
0.0
  0
LINE
  5
154C
330
151D
100
AcDbEntity
  8
0
 62
     0
100
AcDbLine
 10
322.8659196865076
 20
37.02166838947521
 30
0.0
 11
323.3659196865076
 21
37.02166838947521
 31
0.0
  0
INSERT
  5
154D
330
151D
100
AcDbEntity
  8
0
 62
     0
100
AcDbBlockReference
  2
_OBLIQUE
 10
322.8659196865076
 20
37.02166838947521
 30
0.0
 41
0.075
 42
0.075
 43
0.075
 50
180.0
  0
INSERT
  5
154E
330
151D
100
AcDbEntity
  8
0
 62
     0
100
AcDbBlockReference
  2
_OBLIQUE
 10
323.3659196865076
 20
37.02166838947521
 30
0.0
 41
0.075
 42
0.075
 43
0.075
  0
MTEXT
  5
154F
330
151D
100
AcDbEntity
  8
0
 62
     0
100
AcDbMText
 10
323.103317718939
 20
37.09666838947522
 30
0.0
 40
0.075
 41
0.0
 71
     5
 72
     1
  1
\A1;0.50
  7
ROMANC
1001
ACAD
1000
MTEXTBEGIN
1070
    73
1070
     1
1070
    44
1040
1.0
1070
    74
1070
     0
1000
MTEXTEND
1000
MTEXTBEGIN
1070
    73
1070
     1
1070
    44
1040
1.0
1070
    74
1070
     0
1000
MTEXTEND
  0
POINT
  5
1550
330
151D
100
AcDbEntity
  8
DEFPOINTS
 62
     0
100
AcDbPoint
 10
322.8659196865076
 20
37.38482286387077
 30
0.0
  0
POINT
  5
1551
330
151D
100
AcDbEntity
  8
DEFPOINTS
 62
     0
100
AcDbPoint
 10
323.3659196865076
 20
37.38482286387077
 30
0.0
  0
POINT
  5
1552
330
151D
100
AcDbEntity
  8
DEFPOINTS
 62
     0
100
AcDbPoint
 10
323.3659196865076
 20
37.02166838947521
 30
0.0
  0
ENDBLK
  5
1528
330
151D
100
AcDbEntity
  8
0
100
AcDbBlockEnd
  0
BLOCK
  5
1536
330
152A
100
AcDbEntity
  8
0
100
AcDbBlockBegin
  2
*D7
 70
     1
 10
0.0
 20
0.0
 30
0.0
  3
*D7
  1

  0
LINE
  5
155E
330
152A
100
AcDbEntity
  8
0
 62
     0
100
AcDbLine
 10
323.4375549149111
 20
37.61982286387075
 30
0.0
 11
323.5993606282083
 21
37.61982286387075
 31
0.0
  0
LINE
  5
155F
330
152A
100
AcDbEntity
  8
0
 62
     0
100
AcDbLine
 10
323.4225549149111
 20
37.38482286387077
 30
0.0
 11
323.5993606282083
 21
37.38482286387077
 31
0.0
  0
LINE
  5
1560
330
152A
100
AcDbEntity
  8
0
 62
     0
100
AcDbLine
 10
323.5843606282082
 20
37.61982286387075
 30
0.0
 11
323.5843606282082
 21
37.69482286387077
 31
0.0
  0
LINE
  5
1561
330
152A
100
AcDbEntity
  8
0
 62
     0
100
AcDbLine
 10
323.5843606282082
 20
37.38482286387077
 30
0.0
 11
323.5843606282082
 21
37.30982286387075
 31
0.0
  0
LINE
  5
1562
330
152A
100
AcDbEntity
  8
0
 62
     0
100
AcDbLine
 10
323.5843606282082
 20
37.61982286387075
 30
0.0
 11
323.5843606282082
 21
37.38482286387077
 31
0.0
  0
INSERT
  5
1563
330
152A
100
AcDbEntity
  8
0
 62
     0
100
AcDbBlockReference
  2
_OBLIQUE
 10
323.5843606282082
 20
37.61982286387075
 30
0.0
 41
0.075
 42
0.075
 43
0.075
 50
270.0
  0
INSERT
  5
1564
330
152A
100
AcDbEntity
  8
0
 62
     0
100
AcDbBlockReference
  2
_OBLIQUE
 10
323.5843606282082
 20
37.38482286387077
 30
0.0
 41
0.075
 42
0.075
 43
0.075
 50
90.0
  0
MTEXT
  5
1565
330
152A
100
AcDbEntity
  8
0
 62
     0
100
AcDbMText
 10
323.5093606282083
 20
37.50232286387081
 30
0.0
 40
0.075
 41
0.0
 71
     5
 72
     1
  1
\A1;0.24
  7
ROMANC
 11
0.0000000000000001
 21
1.0
 31
0.0
1001
ACAD
1000
MTEXTBEGIN
1070
    73
1070
     1
1070
    44
1040
1.0
1070
    74
1070
     0
1000
MTEXTEND
1000
MTEXTBEGIN
1070
    73
1070
     1
1070
    44
1040
1.0
1070
    74
1070
     0
1000
MTEXTEND
  0
POINT
  5
1566
330
152A
100
AcDbEntity
  8
DEFPOINTS
 62
     0
100
AcDbPoint
 10
323.4225549149113
 20
37.61982286387075
 30
0.0
  0
POINT
  5
1567
330
152A
100
AcDbEntity
  8
DEFPOINTS
 62
     0
100
AcDbPoint
 10
323.4075549149112
 20
37.38482286387077
 30
0.0
  0
POINT
  5
1568
330
152A
100
AcDbEntity
  8
DEFPOINTS
 62
     0
100
AcDbPoint
 10
323.5843606282082
 20
37.38482286387077
 30
0.0
  0
ENDBLK
  5
1537
330
152A
100
AcDbEntity
  8
0
100
AcDbBlockEnd
  0
BLOCK
  5
159D
330
1593
100
AcDbEntity
  8
0
100
AcDbBlockBegin
  2
*D8
 70
     1
 10
0.0
 20
0.0
 30
0.0
  3
*D8
  1

  0
LINE
  5
15E3
330
1593
100
AcDbEntity
  8
0
 62
     0
100
AcDbLine
 10
322.5884071683494
 20
37.31604892494427
 30
0.0
 11
322.5884071683494
 21
37.04006825967393
 31
0.0
  0
LINE
  5
15E4
330
1593
100
AcDbEntity
  8
0
 62
     0
100
AcDbLine
 10
323.5884071683493
 20
37.31604892494428
 30
0.0
 11
323.5884071683493
 21
37.04006825967393
 31
0.0
  0
LINE
  5
15E5
330
1593
100
AcDbEntity
  8
0
 62
     0
100
AcDbLine
 10
322.5884071683494
 20
37.05506825967393
 30
0.0
 11
323.5884071683493
 21
37.05506825967393
 31
0.0
  0
INSERT
  5
15E6
330
1593
100
AcDbEntity
  8
0
 62
     0
100
AcDbBlockReference
  2
_OBLIQUE
 10
322.5884071683494
 20
37.05506825967393
 30
0.0
 41
0.075
 42
0.075
 43
0.075
 50
180.0
  0
INSERT
  5
15E7
330
1593
100
AcDbEntity
  8
0
 62
     0
100
AcDbBlockReference
  2
_OBLIQUE
 10
323.5884071683493
 20
37.05506825967393
 30
0.0
 41
0.075
 42
0.075
 43
0.075
  0
MTEXT
  5
15E8
330
1593
100
AcDbEntity
  8
0
 62
     0
100
AcDbMText
 10
323.0884071683493
 20
37.13006825967392
 30
0.0
 40
0.075
 41
0.0
 71
     5
 72
     1
  1
\A1;1.00
  7
ROMANC
1001
ACAD
1000
MTEXTBEGIN
1070
    73
1070
     1
1070
    44
1040
1.0
1070
    74
1070
     0
1000
MTEXTEND
1000
MTEXTBEGIN
1070
    73
1070
     1
1070
    44
1040
1.0
1070
    74
1070
     0
1000
MTEXTEND
  0
POINT
  5
15E9
330
1593
100
AcDbEntity
  8
DEFPOINTS
 62
     0
100
AcDbPoint
 10
322.5884071683494
 20
37.33104892494427
 30
0.0
  0
POINT
  5
15EA
330
1593
100
AcDbEntity
  8
DEFPOINTS
 62
     0
100
AcDbPoint
 10
323.5884071683493
 20
37.33104892494428
 30
0.0
  0
POINT
  5
15EB
330
1593
100
AcDbEntity
  8
DEFPOINTS
 62
     0
100
AcDbPoint
 10
323.5884071683493
 20
37.05506825967393
 30
0.0
  0
ENDBLK
  5
159E
330
1593
100
AcDbEntity
  8
0
100
AcDbBlockEnd
  0
BLOCK
  5
15AC
330
15A0
100
AcDbEntity
  8
0
100
AcDbBlockBegin
  2
*D9
 70
     1
 10
0.0
 20
0.0
 30
0.0
  3
*D9
  1

  0
LINE
  5
15EC
330
15A0
100
AcDbEntity
  8
0
 62
     0
100
AcDbLine
 10
323.7186543308248
 20
37.63104892494424
 30
0.0
 11
324.0822564980478
 21
37.63104892494424
 31
0.0
  0
LINE
  5
15ED
330
15A0
100
AcDbEntity
  8
0
 62
     0
100
AcDbLine
 10
323.7036543308249
 20
37.33104892494427
 30
0.0
 11
324.0822564980478
 21
37.33104892494427
 31
0.0
  0
LINE
  5
15EE
330
15A0
100
AcDbEntity
  8
0
 62
     0
100
AcDbLine
 10
324.0672564980478
 20
37.63104892494424
 30
0.0
 11
324.0672564980478
 21
37.70604892494425
 31
0.0
  0
LINE
  5
15EF
330
15A0
100
AcDbEntity
  8
0
 62
     0
100
AcDbLine
 10
324.0672564980478
 20
37.33104892494427
 30
0.0
 11
324.0672564980478
 21
37.25604892494427
 31
0.0
  0
LINE
  5
15F0
330
15A0
100
AcDbEntity
  8
0
 62
     0
100
AcDbLine
 10
324.0672564980478
 20
37.63104892494424
 30
0.0
 11
324.0672564980478
 21
37.33104892494427
 31
0.0
  0
INSERT
  5
15F1
330
15A0
100
AcDbEntity
  8
0
 62
     0
100
AcDbBlockReference
  2
_OBLIQUE
 10
324.0672564980478
 20
37.63104892494424
 30
0.0
 41
0.075
 42
0.075
 43
0.075
 50
270.0
  0
INSERT
  5
15F2
330
15A0
100
AcDbEntity
  8
0
 62
     0
100
AcDbBlockReference
  2
_OBLIQUE
 10
324.0672564980478
 20
37.33104892494427
 30
0.0
 41
0.075
 42
0.075
 43
0.075
 50
90.0
  0
MTEXT
  5
15F3
330
15A0
100
AcDbEntity
  8
0
 62
     0
100
AcDbMText
 10
323.992256498048
 20
37.48104892494431
 30
0.0
 40
0.075
 41
0.0
 71
     5
 72
     1
  1
\A1;0.30
  7
ROMANC
 11
0.0000000000000001
 21
1.0
 31
0.0
1001
ACAD
1000
MTEXTBEGIN
1070
    73
1070
     1
1070
    44
1040
1.0
1070
    74
1070
     0
1000
MTEXTEND
1000
MTEXTBEGIN
1070
    73
1070
     1
1070
    44
1040
1.0
1070
    74
1070
     0
1000
MTEXTEND
  0
POINT
  5
15F4
330
15A0
100
AcDbEntity
  8
DEFPOINTS
 62
     0
100
AcDbPoint
 10
323.7036543308249
 20
37.63104892494424
 30
0.0
  0
POINT
  5
15F5
330
15A0
100
AcDbEntity
  8
DEFPOINTS
 62
     0
100
AcDbPoint
 10
323.688654330825
 20
37.33104892494427
 30
0.0
  0
POINT
  5
15F6
330
15A0
100
AcDbEntity
  8
DEFPOINTS
 62
     0
100
AcDbPoint
 10
324.0672564980478
 20
37.33104892494427
 30
0.0
  0
ENDBLK
  5
15AD
330
15A0
100
AcDbEntity
  8
0
100
AcDbBlockEnd
  0
BLOCK
  5
16AB
330
169F
100
AcDbEntity
  8
0
100
AcDbBlockBegin
  2
*D10
 70
     1
 10
0.0
 20
0.0
 30
0.0
  3
*D10
  1

  0
LINE
  5
16A0
330
169F
100
AcDbEntity
  8
0
 62
     0
100
AcDbLine
 10
322.9993518032059
 20
37.36970238373853
 30
0.0
 11
322.9993518032059
 21
37.13003450447557
 31
0.0
  0
LINE
  5
16A1
330
169F
100
AcDbEntity
  8
0
 62
     0
100
AcDbLine
 10
323.2493518032059
 20
37.36970238373853
 30
0.0
 11
323.2493518032059
 21
37.13003450447557
 31
0.0
  0
LINE
  5
16A2
330
169F
100
AcDbEntity
  8
0
 62
     0
100
AcDbLine
 10
322.9993518032059
 20
37.14503450447557
 30
0.0
 11
322.9243518032059
 21
37.14503450447557
 31
0.0
  0
LINE
  5
16A3
330
169F
100
AcDbEntity
  8
0
 62
     0
100
AcDbLine
 10
323.2493518032059
 20
37.14503450447557
 30
0.0
 11
323.3243518032058
 21
37.14503450447557
 31
0.0
  0
LINE
  5
16A4
330
169F
100
AcDbEntity
  8
0
 62
     0
100
AcDbLine
 10
322.9993518032059
 20
37.14503450447557
 30
0.0
 11
323.2493518032059
 21
37.14503450447557
 31
0.0
  0
INSERT
  5
16A5
330
169F
100
AcDbEntity
  8
0
 62
     0
100
AcDbBlockReference
  2
_OBLIQUE
 10
322.9993518032059
 20
37.14503450447557
 30
0.0
 41
0.075
 42
0.075
 43
0.075
  0
INSERT
  5
16A6
330
169F
100
AcDbEntity
  8
0
 62
     0
100
AcDbBlockReference
  2
_OBLIQUE
 10
323.2493518032059
 20
37.14503450447557
 30
0.0
 41
0.075
 42
0.075
 43
0.075
 50
180.0
  0
MTEXT
  5
16A7
330
169F
100
AcDbEntity
  8
0
 62
     0
100
AcDbMText
 10
323.1243518032059
 20
37.22003450447557
 30
0.0
 40
0.075
 41
0.0
 71
     5
 72
     1
  1
\A1;0.25
  7
ROMANC
1001
ACAD
1000
MTEXTBEGIN
1070
    73
1070
     1
1070
    44
1040
1.0
1070
    74
1070
     0
1000
MTEXTEND
  0
POINT
  5
16A8
330
169F
100
AcDbEntity
  8
DEFPOINTS
 62
     0
100
AcDbPoint
 10
322.9993518032059
 20
37.38470238373853
 30
0.0
  0
POINT
  5
16A9
330
169F
100
AcDbEntity
  8
DEFPOINTS
 62
     0
100
AcDbPoint
 10
323.2493518032059
 20
37.38470238373853
 30
0.0
  0
POINT
  5
16AA
330
169F
100
AcDbEntity
  8
DEFPOINTS
 62
     0
100
AcDbPoint
 10
323.2493518032059
 20
37.14503450447557
 30
0.0
  0
ENDBLK
  5
16AC
330
169F
100
AcDbEntity
  8
0
100
AcDbBlockEnd
  0
BLOCK
  5
16BA
330
16AE
100
AcDbEntity
  8
0
100
AcDbBlockBegin
  2
*D11
 70
     1
 10
0.0
 20
0.0
 30
0.0
  3
*D11
  1

  0
LINE
  5
16AF
330
16AE
100
AcDbEntity
  8
0
 62
     0
100
AcDbLine
 10
323.2643518032058
 20
37.38470238373853
 30
0.0
 11
323.488767897485
 21
37.38470238373853
 31
0.0
  0
LINE
  5
16B0
330
16AE
100
AcDbEntity
  8
0
 62
     0
100
AcDbLine
 10
323.2643518032058
 20
37.53470238373852
 30
0.0
 11
323.488767897485
 21
37.53470238373852
 31
0.0
  0
LINE
  5
16B1
330
16AE
100
AcDbEntity
  8
0
 62
     0
100
AcDbLine
 10
323.473767897485
 20
37.38470238373853
 30
0.0
 11
323.473767897485
 21
37.30970238373852
 31
0.0
  0
LINE
  5
16B2
330
16AE
100
AcDbEntity
  8
0
 62
     0
100
AcDbLine
 10
323.473767897485
 20
37.53470238373852
 30
0.0
 11
323.473767897485
 21
37.60970238373853
 31
0.0
  0
LINE
  5
16B3
330
16AE
100
AcDbEntity
  8
0
 62
     0
100
AcDbLine
 10
323.473767897485
 20
37.38470238373853
 30
0.0
 11
323.473767897485
 21
37.53470238373852
 31
0.0
  0
INSERT
  5
16B4
330
16AE
100
AcDbEntity
  8
0
 62
     0
100
AcDbBlockReference
  2
_OBLIQUE
 10
323.473767897485
 20
37.38470238373853
 30
0.0
 41
0.075
 42
0.075
 43
0.075
 50
90.0
  0
INSERT
  5
16B5
330
16AE
100
AcDbEntity
  8
0
 62
     0
100
AcDbBlockReference
  2
_OBLIQUE
 10
323.473767897485
 20
37.53470238373852
 30
0.0
 41
0.075
 42
0.075
 43
0.075
 50
270.0
  0
MTEXT
  5
16B6
330
16AE
100
AcDbEntity
  8
0
 62
     0
100
AcDbMText
 10
323.398767897485
 20
37.45970238373858
 30
0.0
 40
0.075
 41
0.0
 71
     5
 72
     1
  1
\A1;0.15
  7
ROMANC
 11
0.0000000000000001
 21
1.0
 31
0.0
1001
ACAD
1000
MTEXTBEGIN
1070
    73
1070
     1
1070
    44
1040
1.0
1070
    74
1070
     0
1000
MTEXTEND
  0
POINT
  5
16B7
330
16AE
100
AcDbEntity
  8
DEFPOINTS
 62
     0
100
AcDbPoint
 10
323.2493518032059
 20
37.38470238373853
 30
0.0
  0
POINT
  5
16B8
330
16AE
100
AcDbEntity
  8
DEFPOINTS
 62
     0
100
AcDbPoint
 10
323.2493518032059
 20
37.53470238373852
 30
0.0
  0
POINT
  5
16B9
330
16AE
100
AcDbEntity
  8
DEFPOINTS
 62
     0
100
AcDbPoint
 10
323.473767897485
 20
37.53470238373852
 30
0.0
  0
ENDBLK
  5
16BB
330
16AE
100
AcDbEntity
  8
0
100
AcDbBlockEnd
  0
ENDSEC
  0
SECTION
  2
ENTITIES
  0
TEXT
  5
2A
330
17
100
AcDbEntity
  8
0
100
AcDbText
 10
322.2817816461823
 20
39.88285543647865
 30
0.0
 40
0.15
  1
TIPUS   C4
  7
ROMANC
100
AcDbText
  0
TEXT
  5
2D
330
17
100
AcDbEntity
  8
0
100
AcDbText
 10
322.2861889043547
 20
38.97634466044094
 30
0.0
 40
0.15
  1
P = 5.5 dm
  7
ROMANC
100
AcDbText
  0
TEXT
  5
2E
330
17
100
AcDbEntity
  8
0
100
AcDbText
 10
322.2753462641043
 20
39.28102110106569
 30
0.0
 40
0.15
  1
S = 3.75 dm
  7
ROMANC
100
AcDbText
  0
TEXT
  5
2F
330
17
100
AcDbEntity
  8
0
100
AcDbText
 10
322.2817816461823
 20
39.58031610106569
 30
0.0
 40
0.15
  1
ESCALA  1: 2.5
  7
ROMANC
100
AcDbText
  0
TEXT
  5
30
330
17
100
AcDbEntity
  8
0
100
AcDbText
 10
323.9354019324186
 20
39.43397910106568
 30
0.0
 40
0.05
  1
2
  7
ROMANC
100
AcDbText
  0
LWPOLYLINE
  5
117D
330
17
100
AcDbEntity
  8
NO_PRINT
100
AcDbPolyline
 90
        4
 70
     1
 43
0.0
 10
320.7538766547918
 20
33.8600391273392
 10
326.0038766547919
 20
33.8600391273392
 10
326.0038766547919
 20
41.28503912733918
 10
320.7538766547918
 20
41.28503912733918
  0
LINE
  5
16BC
330
17
100
AcDbEntity
  8
0
100
AcDbLine
 10
323.2643518032058
 20
37.38470238373853
 30
0.0
 11
323.488767897485
 21
37.38470238373853
 31
0.0
  0
LINE
  5
16BD
330
17
100
AcDbEntity
  8
0
100
AcDbLine
 10
323.2643518032058
 20
37.53470238373852
 30
0.0
 11
323.488767897485
 21
37.53470238373852
 31
0.0
  0
LINE
  5
16BE
330
17
100
AcDbEntity
  8
0
100
AcDbLine
 10
323.473767897485
 20
37.38470238373853
 30
0.0
 11
323.473767897485
 21
37.30970238373852
 31
0.0
  0
LINE
  5
16BF
330
17
100
AcDbEntity
  8
0
100
AcDbLine
 10
323.473767897485
 20
37.53470238373852
 30
0.0
 11
323.473767897485
 21
37.60970238373853
 31
0.0
  0
LINE
  5
16C0
330
17
100
AcDbEntity
  8
0
100
AcDbLine
 10
323.473767897485
 20
37.38470238373853
 30
0.0
 11
323.473767897485
 21
37.53470238373852
 31
0.0
  0
INSERT
  5
16C1
330
17
100
AcDbEntity
  8
0
100
AcDbBlockReference
  2
_OBLIQUE
 10
323.473767897485
 20
37.38470238373853
 30
0.0
 41
0.075
 42
0.075
 43
0.075
 50
90.0
  0
INSERT
  5
16C2
330
17
100
AcDbEntity
  8
0
100
AcDbBlockReference
  2
_OBLIQUE
 10
323.473767897485
 20
37.53470238373852
 30
0.0
 41
0.075
 42
0.075
 43
0.075
 50
270.0
  0
MTEXT
  5
16C3
330
17
100
AcDbEntity
  8
0
100
AcDbMText
 10
323.5943200080219
 20
37.45970238373858
 30
0.0
 40
0.075
 41
0.0
 71
     5
 72
     1
  1
\A1;0.15
  7
ROMANC
 11
0.0000000000000001
 21
1.0
 31
0.0
1001
ACAD
1000
MTEXTBEGIN
1070
    73
1070
     1
1070
    44
1040
1.0
1070
    74
1070
     0
1000
MTEXTEND
  0
LINE
  5
16C4
330
17
100
AcDbEntity
  8
0
100
AcDbLine
 10
322.9993518032059
 20
37.36970238373853
 30
0.0
 11
322.9993518032059
 21
37.13003450447557
 31
0.0
  0
LINE
  5
16C5
330
17
100
AcDbEntity
  8
0
100
AcDbLine
 10
323.2493518032059
 20
37.36970238373853
 30
0.0
 11
323.2493518032059
 21
37.13003450447557
 31
0.0
  0
LINE
  5
16C6
330
17
100
AcDbEntity
  8
0
100
AcDbLine
 10
322.9993518032059
 20
37.14503450447557
 30
0.0
 11
322.9243518032059
 21
37.14503450447557
 31
0.0
  0
LINE
  5
16C7
330
17
100
AcDbEntity
  8
0
100
AcDbLine
 10
323.2493518032059
 20
37.14503450447557
 30
0.0
 11
323.3243518032058
 21
37.14503450447557
 31
0.0
  0
LINE
  5
16C8
330
17
100
AcDbEntity
  8
0
100
AcDbLine
 10
322.9993518032059
 20
37.14503450447557
 30
0.0
 11
323.2493518032059
 21
37.14503450447557
 31
0.0
  0
INSERT
  5
16C9
330
17
100
AcDbEntity
  8
0
100
AcDbBlockReference
  2
_OBLIQUE
 10
322.9993518032059
 20
37.14503450447557
 30
0.0
 41
0.075
 42
0.075
 43
0.075
  0
INSERT
  5
16CA
330
17
100
AcDbEntity
  8
0
100
AcDbBlockReference
  2
_OBLIQUE
 10
323.2493518032059
 20
37.14503450447557
 30
0.0
 41
0.075
 42
0.075
 43
0.075
 50
180.0
  0
MTEXT
  5
16CB
330
17
100
AcDbEntity
  8
0
100
AcDbMText
 10
323.1243518032059
 20
37.06610063948103
 30
0.0
 40
0.075
 41
0.0
 71
     5
 72
     1
  1
\A1;0.25
  7
ROMANC
1001
ACAD
1000
MTEXTBEGIN
1070
    73
1070
     1
1070
    44
1040
1.0
1070
    74
1070
     0
1000
MTEXTEND
  0
LINE
  5
16CC
330
17
100
AcDbEntity
  8
0
100
AcDbLine
 10
322.9943518032059
 20
37.53470238373852
 30
0.0
 11
322.9943518032059
 21
37.37970238373852
 31
0.0
  0
LINE
  5
16CD
330
17
100
AcDbEntity
  8
0
100
AcDbLine
 10
322.9943518032059
 20
37.37970238373852
 30
0.0
 11
323.2543518032059
 21
37.37970238373852
 31
0.0
  0
LINE
  5
16CE
330
17
100
AcDbEntity
  8
0
100
AcDbLine
 10
323.2543518032059
 20
37.37970238373852
 30
0.0
 11
323.2543518032059
 21
37.53470238373852
 31
0.0
  0
LINE
  5
16CF
330
17
100
AcDbEntity
  8
0
100
AcDbLine
 10
323.0043518032059
 20
37.53470238373852
 30
0.0
 11
323.0043518032059
 21
37.38970238373853
 31
0.0
  0
LINE
  5
16D0
330
17
100
AcDbEntity
  8
0
100
AcDbLine
 10
323.0043518032059
 20
37.38970238373853
 30
0.0
 11
323.2443518032059
 21
37.38970238373853
 31
0.0
  0
LINE
  5
16D1
330
17
100
AcDbEntity
  8
0
100
AcDbLine
 10
323.2443518032059
 20
37.38970238373853
 30
0.0
 11
323.2443518032059
 21
37.53470238373852
 31
0.0
  0
LINE
  5
16D2
330
17
100
AcDbEntity
  8
0
100
AcDbLine
 10
323.0093518032059
 20
37.53470238373852
 30
0.0
 11
323.0093518032059
 21
37.39470238373852
 31
0.0
  0
LINE
  5
16D3
330
17
100
AcDbEntity
  8
0
100
AcDbLine
 10
323.0093518032059
 20
37.39470238373852
 30
0.0
 11
323.2393518032059
 21
37.39470238373852
 31
0.0
  0
LINE
  5
16D4
330
17
100
AcDbEntity
  8
0
100
AcDbLine
 10
323.2393518032059
 20
37.39470238373852
 30
0.0
 11
323.2393518032059
 21
37.53470238373852
 31
0.0
  0
LINE
  5
16D5
330
17
100
AcDbEntity
  8
0
100
AcDbLine
 10
322.9893518032059
 20
37.53470238373852
 30
0.0
 11
322.9893518032059
 21
37.37470238373853
 31
0.0
  0
LINE
  5
16D6
330
17
100
AcDbEntity
  8
0
100
AcDbLine
 10
322.9893518032059
 20
37.37470238373853
 30
0.0
 11
323.2593518032059
 21
37.37470238373853
 31
0.0
  0
LINE
  5
16D7
330
17
100
AcDbEntity
  8
0
100
AcDbLine
 10
323.2593518032059
 20
37.37470238373853
 30
0.0
 11
323.2593518032059
 21
37.53470238373852
 31
0.0
  0
LINE
  5
16D8
330
17
100
AcDbEntity
  8
0
100
AcDbLine
 10
322.9893518032059
 20
37.53470238373852
 30
0.0
 11
322.9893518032059
 21
37.37470238373853
 31
0.0
  0
LINE
  5
16D9
330
17
100
AcDbEntity
  8
0
100
AcDbLine
 10
322.9893518032059
 20
37.37470238373853
 30
0.0
 11
323.2593518032059
 21
37.37470238373853
 31
0.0
  0
LINE
  5
16DA
330
17
100
AcDbEntity
  8
0
100
AcDbLine
 10
323.2593518032059
 20
37.37470238373853
 30
0.0
 11
323.2593518032059
 21
37.53470238373852
 31
0.0
  0
LINE
  5
16DB
330
17
100
AcDbEntity
  8
0
100
AcDbLine
 10
322.9893518032059
 20
37.53470238373852
 30
0.0
 11
322.9893518032059
 21
37.37470238373853
 31
0.0
  0
LINE
  5
16DC
330
17
100
AcDbEntity
  8
0
100
AcDbLine
 10
322.9893518032059
 20
37.37470238373853
 30
0.0
 11
323.2593518032059
 21
37.37470238373853
 31
0.0
  0
LINE
  5
16DD
330
17
100
AcDbEntity
  8
0
100
AcDbLine
 10
323.2593518032059
 20
37.37470238373853
 30
0.0
 11
323.2593518032059
 21
37.53470238373852
 31
0.0
  0
LINE
  5
16DE
330
17
100
AcDbEntity
  8
0
100
AcDbLine
 10
322.9993518032059
 20
37.53470238373852
 30
0.0
 11
322.9993518032059
 21
37.38470238373853
 31
0.0
  0
LINE
  5
16DF
330
17
100
AcDbEntity
  8
0
100
AcDbLine
 10
322.9993518032059
 20
37.38470238373853
 30
0.0
 11
323.2493518032059
 21
37.38470238373853
 31
0.0
  0
LINE
  5
16E0
330
17
100
AcDbEntity
  8
0
100
AcDbLine
 10
323.2493518032059
 20
37.38470238373853
 30
0.0
 11
323.2493518032059
 21
37.53470238373852
 31
0.0
  0
VIEWPORT
  5
FCA
330
14
100
AcDbEntity
 67
     1
  8
0
100
AcDbViewport
 10
8.052072844465962
 20
11.50380524305526
 30
0.0
 40
35.17270632360808
 41
24.74662075252982
 68
     1
 69
     1
1001
ACAD
1000
MVIEW
1002
{
1070
    16
1010
0.0
1020
0.0
1030
0.0
1010
0.0
1020
0.0
1030
1.0
1040
0.0
1040
24.74662075252982
1040
8.052072844465962
1040
11.50380524305526
1040
50.0
1040
0.0
1040
0.0
1070
     0
1070
   100
1070
     1
1070
     1
1070
     0
1070
     0
1070
     0
1070
     0
1040
0.0
1040
0.0
1040
0.0
1040
10.0
1040
10.0
1040
10.0
1040
10.0
1070
     0
1002
{
1002
}
1002
}
  0
VIEWPORT
  5
FCC
330
14
100
AcDbEntity
 67
     1
  8
FINESTRA
100
AcDbViewport
 10
8.045876423917942
 20
11.49693433107352
 30
0.0
 40
15.66853654318931
 41
22.52459118038126
 68
     2
 69
     2
1001
ACAD
1000
MVIEW
1002
{
1070
    16
1010
0.0
1020
0.0
1030
0.0
1010
0.0
1020
0.0
1030
1.0
1040
0.0
1040
16.93578284239193
1040
323.9754497015097
1040
37.68582970763765
1040
50.0
1040
0.0
1040
0.0
1070
     0
1070
   100
1070
     1
1070
     0
1070
     0
1070
     0
1070
     0
1070
     1
1040
0.0
1040
0.0
1040
0.0
1040
1.0
1040
1.0
1040
10.0
1040
10.0
1070
     0
1002
{
1002
}
1002
}
  0
ENDSEC
  0
SECTION
  2
OBJECTS
  0
DICTIONARY
  5
C
330
0
100
AcDbDictionary
  3
ACAD_GROUP
350
D
  3
ACAD_LAYOUT
350
FC0
  3
ACAD_MLINESTYLE
350
1A
  3
ACAD_PLOTSETTINGS
350
FC1
  3
ACAD_PLOTSTYLENAME
350
FBE
  3
ACDBHEADERROUNDTRIPXREC
350
16E2
  3
ACDBVARIABLEDICTIONARY
350
25
  0
DICTIONARY
  5
11AB
330
17
100
AcDbDictionary
280
     1
  3
ACAD_LAYOUTSELFREF
360
1704
  0
DICTIONARY
  5
11A9
330
14
100
AcDbDictionary
280
     1
  3
ACAD_LAYOUTSELFREF
360
1703
  0
DICTIONARY
  5
D
102
{ACAD_REACTORS
330
C
102
}
330
C
100
AcDbDictionary
  0
DICTIONARY
  5
FC0
102
{ACAD_REACTORS
330
C
102
}
330
C
100
AcDbDictionary
  0
DICTIONARY
  5
1A
102
{ACAD_REACTORS
330
C
102
}
330
C
100
AcDbDictionary
  3
STANDARD
350
1B
  0
DICTIONARY
  5
FC1
102
{ACAD_REACTORS
330
C
102
}
330
C
100
AcDbDictionary
  0
ACDBDICTIONARYWDFLT
  5
FBE
102
{ACAD_REACTORS
330
C
102
}
330
C
100
AcDbDictionary
281
     1
  3
Normal
350
FBF
100
AcDbDictionaryWithDefault
340
FBF
  0
DICTIONARY
  5
16E2
102
{ACAD_REACTORS
330
C
102
}
330
C
100
AcDbDictionary
  3
CEPSNTYPE
350
16EC
  3
DIMSTYLEDATA
350
16F0
  3
FINGERPRINTGUID
350
16ED
  3
HYPERLINKBASE
350
16E5
  3
INSUNITS
350
16EB
  3
LAYOUTDICT
350
16E7
  3
LWETCUNION
350
16EA
  3
PLOTSETDICT
350
16E8
  3
PLOTSTYLNAMDICT
350
16E9
  3
PSVPSCALE
350
16EF
  3
PUCSBASE
350
16F3
  3
PUCSORGBACK
350
16F9
  3
PUCSORGBOTTOM
350
16F5
  3
PUCSORGFRONT
350
16F8
  3
PUCSORGLEFT
350
16F6
  3
PUCSORGRIGHT
350
16F7
  3
PUCSORGTOP
350
16F4
  3
PUCSORTHOREF
350
16F1
  3
PUCSORTHOVIEW
350
16F2
  3
STYLESHEET
350
16E6
  3
TSTACKALIGN
350
16E3
  3
TSTACKSIZE
350
16E4
  3
UCSBASE
350
16FC
  3
UCSORGBACK
350
1702
  3
UCSORGBOTTOM
350
16FE
  3
UCSORGFRONT
350
1701
  3
UCSORGLEFT
350
16FF
  3
UCSORGRIGHT
350
1700
  3
UCSORGTOP
350
16FD
  3
UCSORTHOREF
350
16FA
  3
UCSORTHOVIEW
350
16FB
  3
VERSIONGUID
350
16EE
  0
DICTIONARY
  5
25
102
{ACAD_REACTORS
330
C
102
}
330
C
100
AcDbDictionary
  3
DIMADEC
350
26
  3
DIMASSOC
350
1649
  0
XRECORD
  5
1704
102
{ACAD_REACTORS
330
11AB
102
}
330
11AB
100
AcDbXrecord
340
17
  0
XRECORD
  5
1703
102
{ACAD_REACTORS
330
11A9
102
}
330
11A9
100
AcDbXrecord
340
14
  0
MLINESTYLE
  5
1B
102
{ACAD_REACTORS
330
1A
102
}
330
1A
100
AcDbMlineStyle
  2
STANDARD
 70
     0
  3

 62
   256
 51
90.0
 52
90.0
 71
     2
 49
0.5
 62
   256
  6
BYLAYER
 49
-0.5
 62
   256
  6
BYLAYER
  0
ACDBPLACEHOLDER
  5
FBF
102
{ACAD_REACTORS
330
FBE
102
}
330
FBE
100
AcDbPlaceHolder
280
     0
  0
XRECORD
  5
16EC
102
{ACAD_REACTORS
330
16E2
102
}
330
16E2
100
AcDbXrecord
 90
        0
  0
XRECORD
  5
16F0
102
{ACAD_REACTORS
330
16E2
102
}
330
16E2
100
AcDbXrecord
1000
DSTYLE
1002
{
1070
   341
340
11DB
1070
   342
340
11DB
1002
}
  0
XRECORD
  5
16ED
102
{ACAD_REACTORS
330
16E2
102
}
330
16E2
100
AcDbXrecord
  1
{85A93EE0-FB4C-11D3-A568-0008C769B1B5}
  0
XRECORD
  5
16E5
102
{ACAD_REACTORS
330
16E2
102
}
330
16E2
100
AcDbXrecord
  1

  0
XRECORD
  5
16EB
102
{ACAD_REACTORS
330
16E2
102
}
330
16E2
100
AcDbXrecord
 90
        0
  0
XRECORD
  5
16E7
102
{ACAD_REACTORS
330
16E2
102
}
330
16E2
100
AcDbXrecord
340
FC0
  0
XRECORD
  5
16EA
102
{ACAD_REACTORS
330
16E2
102
}
330
16E2
100
AcDbXrecord
 90
    10781
  0
XRECORD
  5
16E8
102
{ACAD_REACTORS
330
16E2
102
}
330
16E2
100
AcDbXrecord
340
FC1
  0
XRECORD
  5
16E9
102
{ACAD_REACTORS
330
16E2
102
}
330
16E2
100
AcDbXrecord
340
FBE
  0
XRECORD
  5
16EF
102
{ACAD_REACTORS
330
16E2
102
}
330
16E2
100
AcDbXrecord
 40
0.0
  0
XRECORD
  5
16F3
102
{ACAD_REACTORS
330
16E2
102
}
330
16E2
100
AcDbXrecord
340
0
  0
XRECORD
  5
16F9
102
{ACAD_REACTORS
330
16E2
102
}
330
16E2
100
AcDbXrecord
 10
0.0
 20
0.0
 30
0.0
  0
XRECORD
  5
16F5
102
{ACAD_REACTORS
330
16E2
102
}
330
16E2
100
AcDbXrecord
 10
0.0
 20
0.0
 30
0.0
  0
XRECORD
  5
16F8
102
{ACAD_REACTORS
330
16E2
102
}
330
16E2
100
AcDbXrecord
 10
0.0
 20
0.0
 30
0.0
  0
XRECORD
  5
16F6
102
{ACAD_REACTORS
330
16E2
102
}
330
16E2
100
AcDbXrecord
 10
0.0
 20
0.0
 30
0.0
  0
XRECORD
  5
16F7
102
{ACAD_REACTORS
330
16E2
102
}
330
16E2
100
AcDbXrecord
 10
0.0
 20
0.0
 30
0.0
  0
XRECORD
  5
16F4
102
{ACAD_REACTORS
330
16E2
102
}
330
16E2
100
AcDbXrecord
 10
0.0
 20
0.0
 30
0.0
  0
XRECORD
  5
16F1
102
{ACAD_REACTORS
330
16E2
102
}
330
16E2
100
AcDbXrecord
340
0
  0
XRECORD
  5
16F2
102
{ACAD_REACTORS
330
16E2
102
}
330
16E2
100
AcDbXrecord
 70
     0
  0
XRECORD
  5
16E6
102
{ACAD_REACTORS
330
16E2
102
}
330
16E2
100
AcDbXrecord
  1

  0
XRECORD
  5
16E3
102
{ACAD_REACTORS
330
16E2
102
}
330
16E2
100
AcDbXrecord
 90
        1
  0
XRECORD
  5
16E4
102
{ACAD_REACTORS
330
16E2
102
}
330
16E2
100
AcDbXrecord
 90
       70
  0
XRECORD
  5
16FC
102
{ACAD_REACTORS
330
16E2
102
}
330
16E2
100
AcDbXrecord
340
0
  0
XRECORD
  5
1702
102
{ACAD_REACTORS
330
16E2
102
}
330
16E2
100
AcDbXrecord
 10
0.0
 20
0.0
 30
0.0
  0
XRECORD
  5
16FE
102
{ACAD_REACTORS
330
16E2
102
}
330
16E2
100
AcDbXrecord
 10
0.0
 20
0.0
 30
0.0
  0
XRECORD
  5
1701
102
{ACAD_REACTORS
330
16E2
102
}
330
16E2
100
AcDbXrecord
 10
0.0
 20
0.0
 30
0.0
  0
XRECORD
  5
16FF
102
{ACAD_REACTORS
330
16E2
102
}
330
16E2
100
AcDbXrecord
 10
0.0
 20
0.0
 30
0.0
  0
XRECORD
  5
1700
102
{ACAD_REACTORS
330
16E2
102
}
330
16E2
100
AcDbXrecord
 10
0.0
 20
0.0
 30
0.0
  0
XRECORD
  5
16FD
102
{ACAD_REACTORS
330
16E2
102
}
330
16E2
100
AcDbXrecord
 10
0.0
 20
0.0
 30
0.0
  0
XRECORD
  5
16FA
102
{ACAD_REACTORS
330
16E2
102
}
330
16E2
100
AcDbXrecord
340
0
  0
XRECORD
  5
16FB
102
{ACAD_REACTORS
330
16E2
102
}
330
16E2
100
AcDbXrecord
 70
     0
  0
XRECORD
  5
16EE
102
{ACAD_REACTORS
330
16E2
102
}
330
16E2
100
AcDbXrecord
  1
{F099165A-08D3-4127-8053-C0080B4A8066}
  0
DICTIONARYVAR
  5
26
102
{ACAD_REACTORS
330
25
102
}
330
25
100
DictionaryVariables
280
     0
  1
0
  0
DICTIONARYVAR
  5
1649
102
{ACAD_REACTORS
330
25
102
}
330
25
100
DictionaryVariables
280
     0
  1
1
  0
ENDSEC
  0
EOF
